  0
SECTION
  2
HEADER
  9
$ACADVER
  1
AC1014
  9
$ACADMAINTVER
 70
     6
  9
$DWGCODEPAGE
  3
ANSI_1252
  9
$INSBASE
 10
0.0
 20
0.0
 30
0.0
  9
$EXTMIN
 10
0.9999999999999998
 20
0.3879283850924523
 30
-0.00000001
  9
$EXTMAX
 10
8.100775218997515
 20
10.62533288115142
 30
0.00000001
  9
$LIMMIN
 10
0.0
 20
0.0
  9
$LIMMAX
 10
8.503333333333333
 20
11.00333333333333
  9
$ORTHOMODE
 70
     0
  9
$REGENMODE
 70
     1
  9
$FILLMODE
 70
     1
  9
$QTEXTMODE
 70
     0
  9
$MIRRTEXT
 70
     1
  9
$DRAGMODE
 70
     2
  9
$LTSCALE
 40
1.0
  9
$OSMODE
 70
     0
  9
$ATTMODE
 70
     1
  9
$TEXTSIZE
 40
0.15
  9
$TRACEWID
 40
0.05
  9
$TEXTSTYLE
  7
STANDARD
  9
$CLAYER
  8
0
  9
$CELTYPE
  6
BYLAYER
  9
$CECOLOR
 62
     7
  9
$CELTSCALE
 40
1.0
  9
$DELOBJ
 70
     1
  9
$DISPSILH
 70
     0
  9
$DIMSCALE
 40
1.0
  9
$DIMASZ
 40
0.18
  9
$DIMEXO
 40
0.0625
  9
$DIMDLI
 40
0.38
  9
$DIMRND
 40
0.0
  9
$DIMDLE
 40
0.0
  9
$DIMEXE
 40
0.18
  9
$DIMTP
 40
0.0
  9
$DIMTM
 40
0.0
  9
$DIMTXT
 40
0.125
  9
$DIMCEN
 40
0.09
  9
$DIMTSZ
 40
0.0
  9
$DIMTOL
 70
     0
  9
$DIMLIM
 70
     0
  9
$DIMTIH
 70
     1
  9
$DIMTOH
 70
     1
  9
$DIMSE1
 70
     0
  9
$DIMSE2
 70
     0
  9
$DIMTAD
 70
     0
  9
$DIMZIN
 70
     0
  9
$DIMBLK
  1

  9
$DIMASO
 70
     1
  9
$DIMSHO
 70
     1
  9
$DIMPOST
  1

  9
$DIMAPOST
  1

  9
$DIMALT
 70
     0
  9
$DIMALTD
 70
     2
  9
$DIMALTF
 40
25.4
  9
$DIMLFAC
 40
1.0
  9
$DIMTOFL
 70
     0
  9
$DIMTVP
 40
0.0
  9
$DIMTIX
 70
     0
  9
$DIMSOXD
 70
     0
  9
$DIMSAH
 70
     0
  9
$DIMBLK1
  1

  9
$DIMBLK2
  1

  9
$DIMSTYLE
  2
STANDARD
  9
$DIMCLRD
 70
     0
  9
$DIMCLRE
 70
     0
  9
$DIMCLRT
 70
     0
  9
$DIMTFAC
 40
1.0
  9
$DIMGAP
 40
0.09
  9
$DIMJUST
 70
     0
  9
$DIMSD1
 70
     0
  9
$DIMSD2
 70
     0
  9
$DIMTOLJ
 70
     1
  9
$DIMTZIN
 70
     0
  9
$DIMALTZ
 70
     0
  9
$DIMALTTZ
 70
     0
  9
$DIMFIT
 70
     3
  9
$DIMUPT
 70
     0
  9
$DIMUNIT
 70
     4
  9
$DIMDEC
 70
     3
  9
$DIMTDEC
 70
     4
  9
$DIMALTU
 70
     2
  9
$DIMALTTD
 70
     2
  9
$DIMTXSTY
  7
STANDARD
  9
$DIMAUNIT
 70
     1
  9
$LUNITS
 70
     2
  9
$LUPREC
 70
     3
  9
$SKETCHINC
 40
0.1
  9
$FILLETRAD
 40
0.03
  9
$AUNITS
 70
     0
  9
$AUPREC
 70
     0
  9
$MENU
  1
.
  9
$ELEVATION
 40
0.0
  9
$PELEVATION
 40
0.0
  9
$THICKNESS
 40
0.0
  9
$LIMCHECK
 70
     0
  9
$BLIPMODE
 70
     0
  9
$CHAMFERA
 40
0.075
  9
$CHAMFERB
 40
0.075
  9
$CHAMFERC
 40
0.0
  9
$CHAMFERD
 40
0.0
  9
$SKPOLY
 70
     0
  9
$TDCREATE
 40
2452349.423539074
  9
$TDUPDATE
 40
2311955.477601296
  9
$TDINDWG
 40
0.0000071875
  9
$TDUSRTIMER
 40
0.0000071875
  9
$USRTIMER
 70
     1
  9
$ANGBASE
 50
0.0
  9
$ANGDIR
 70
     0
  9
$PDMODE
 70
     0
  9
$PDSIZE
 40
0.0
  9
$PLINEWID
 40
0.0
  9
$COORDS
 70
     0
  9
$SPLFRAME
 70
     0
  9
$SPLINETYPE
 70
     6
  9
$SPLINESEGS
 70
     8
  9
$ATTDIA
 70
     0
  9
$ATTREQ
 70
     1
  9
$HANDLING
 70
 12289
  9
$HANDSEED
  5
17B
  9
$SURFTAB1
 70
     6
  9
$SURFTAB2
 70
     6
  9
$SURFTYPE
 70
     6
  9
$SURFU
 70
     6
  9
$SURFV
 70
     6
  9
$UCSNAME
  2

  9
$UCSORG
 10
0.0
 20
0.0
 30
0.0
  9
$UCSXDIR
 10
1.0
 20
0.0
 30
0.0
  9
$UCSYDIR
 10
0.0
 20
1.0
 30
0.0
  9
$PUCSNAME
  2

  9
$PUCSORG
 10
0.0
 20
0.0
 30
0.0
  9
$PUCSXDIR
 10
1.0
 20
0.0
 30
0.0
  9
$PUCSYDIR
 10
0.0
 20
1.0
 30
0.0
  9
$USERI1
 70
     0
  9
$USERI2
 70
     0
  9
$USERI3
 70
     0
  9
$USERI4
 70
     0
  9
$USERI5
 70
     0
  9
$USERR1
 40
0.0
  9
$USERR2
 40
0.0
  9
$USERR3
 40
0.0
  9
$USERR4
 40
0.0
  9
$USERR5
 40
0.0
  9
$WORLDVIEW
 70
     1
  9
$SHADEDGE
 70
     3
  9
$SHADEDIF
 70
    70
  9
$TILEMODE
 70
     1
  9
$MAXACTVP
 70
    64
  9
$PINSBASE
 10
0.0
 20
0.0
 30
0.0
  9
$PLIMCHECK
 70
     0
  9
$PEXTMIN
 10
1.000000000000000E+20
 20
1.000000000000000E+20
 30
1.000000000000000E+20
  9
$PEXTMAX
 10
-1.000000000000000E+20
 20
-1.000000000000000E+20
 30
-1.000000000000000E+20
  9
$PLIMMIN
 10
0.0
 20
0.0
  9
$PLIMMAX
 10
12.0
 20
9.0
  9
$UNITMODE
 70
     0
  9
$VISRETAIN
 70
     1
  9
$PLINEGEN
 70
     0
  9
$PSLTSCALE
 70
     1
  9
$TREEDEPTH
 70
  3020
  9
$PICKSTYLE
 70
     1
  9
$CMLSTYLE
  2
STANDARD
  9
$CMLJUST
 70
     0
  9
$CMLSCALE
 40
1.0
  9
$PROXYGRAPHICS
 70
     1
  9
$MEASUREMENT
 70
     0
  0
ENDSEC
  0
SECTION
  2
CLASSES
  0
CLASS
  1
ACDBDICTIONARYWDFLT
  2
AcDbDictionaryWithDefault
  3
AutoCAD 2000
 90
        0
280
     0
281
     0
  0
CLASS
  1
ACDBPLACEHOLDER
  2
AcDbPlaceHolder
  3
AutoCAD 2000
 90
        0
280
     0
281
     0
  0
CLASS
  1
LAYOUT
  2
AcDbLayout
  3
AutoCAD 2000
 90
        0
280
     0
281
     0
  0
CLASS
  1
LONG_TRANSACTION
  2
AcDbLongTransaction
  3
AutoCAD 2000
 90
        0
280
     0
281
     0
  0
CLASS
  1
LWPOLYLINE
  2
AcDbPolyline
  3
AutoCAD 2000
 90
        0
280
     0
281
     1
  0
CLASS
  1
HATCH
  2
AcDbHatch
  3
AutoCAD 2000
 90
        0
280
     0
281
     1
  0
CLASS
  1
XRECORD
  2
AcDbXrecord
  3
AutoCAD 2000
 90
        0
280
     0
281
     0
  0
ENDSEC
  0
SECTION
  2
TABLES
  0
TABLE
  2
VPORT
  5
8
330
0
100
AcDbSymbolTable
 70
     1
  0
VPORT
  5
13
330
8
100
AcDbSymbolTableRecord
100
AcDbViewportTableRecord
  2
*ACTIVE
 70
     0
 10
0.0
 20
0.0
 11
1.0
 21
1.0
 12
4.251666666666666
 22
5.501666666666666
 13
0.0
 23
0.0
 14
1.0
 24
1.0
 15
0.0
 25
0.0
 16
0.0
 26
0.0
 36
1.0
 17
0.0
 27
0.0
 37
0.0
 40
11.00333333333333
 41
0.7727961223871555
 42
50.0
 43
0.0
 44
0.0
 50
0.0
 51
0.0
 71
     0
 72
   100
 73
     1
 74
     1
 75
     0
 76
     0
 77
     0
 78
     0
  0
ENDTAB
  0
TABLE
  2
LTYPE
  5
5
330
0
100
AcDbSymbolTable
 70
    40
  0
LTYPE
  5
14
330
5
100
AcDbSymbolTableRecord
100
AcDbLinetypeTableRecord
  2
BYBLOCK
 70
     0
  3

 72
    65
 73
     0
 40
0.0
  0
LTYPE
  5
15
330
5
100
AcDbSymbolTableRecord
100
AcDbLinetypeTableRecord
  2
BYLAYER
 70
     0
  3

 72
    65
 73
     0
 40
0.0
  0
LTYPE
  5
16
330
5
100
AcDbSymbolTableRecord
100
AcDbLinetypeTableRecord
  2
CONTINUOUS
 70
     0
  3
Solid line
 72
    65
 73
     0
 40
0.0
  0
LTYPE
  5
28
330
5
100
AcDbSymbolTableRecord
100
AcDbLinetypeTableRecord
  2
HIDDEN
 70
     0
  3
_ _ _ _ _ _ _ _ _ _ _ _ _ _ 
 72
    65
 73
     2
 40
0.375
 49
0.25
 74
     0
 49
-0.125
 74
     0
  0
LTYPE
  5
29
330
5
100
AcDbSymbolTableRecord
100
AcDbLinetypeTableRecord
  2
DASHED
 70
     0
  3
__ __ __ __ __ __ __ __ __ 
 72
    65
 73
     2
 40
0.75
 49
0.5
 74
     0
 49
-0.25
 74
     0
  0
LTYPE
  5
2A
330
5
100
AcDbSymbolTableRecord
100
AcDbLinetypeTableRecord
  2
CENTER
 70
     0
  3
____ _ ____ _ ____ _ ____ _ 
 72
    65
 73
     4
 40
2.0
 49
1.25
 74
     0
 49
-0.25
 74
     0
 49
0.25
 74
     0
 49
-0.25
 74
     0
  0
LTYPE
  5
2B
330
5
100
AcDbSymbolTableRecord
100
AcDbLinetypeTableRecord
  2
PHANTOM
 70
     0
  3
_____ _ _ _____ _ _ _____ _ _ 
 72
    65
 73
     6
 40
2.5
 49
1.25
 74
     0
 49
-0.25
 74
     0
 49
0.25
 74
     0
 49
-0.25
 74
     0
 49
0.25
 74
     0
 49
-0.25
 74
     0
  0
LTYPE
  5
2C
330
5
100
AcDbSymbolTableRecord
100
AcDbLinetypeTableRecord
  2
DOT
 70
     0
  3
...........................
 72
    65
 73
     2
 40
0.25
 49
0.0
 74
     0
 49
-0.25
 74
     0
  0
LTYPE
  5
2D
330
5
100
AcDbSymbolTableRecord
100
AcDbLinetypeTableRecord
  2
DASHDOT
 70
     0
  3
__ . __ . __ . __ . __ . __ . 
 72
    65
 73
     4
 40
1.0
 49
0.5
 74
     0
 49
-0.25
 74
     0
 49
0.0
 74
     0
 49
-0.25
 74
     0
  0
LTYPE
  5
2E
330
5
100
AcDbSymbolTableRecord
100
AcDbLinetypeTableRecord
  2
DIVIDE
 70
     0
  3
__ . . __ . . __ . . __ . . 
 72
    65
 73
     6
 40
1.25
 49
0.5
 74
     0
 49
-0.25
 74
     0
 49
0.0
 74
     0
 49
-0.25
 74
     0
 49
0.0
 74
     0
 49
-0.25
 74
     0
  0
LTYPE
  5
2F
330
5
100
AcDbSymbolTableRecord
100
AcDbLinetypeTableRecord
  2
BORDER
 70
     0
  3
__ __ . __ __ . __ __ . __ __ .
 72
    65
 73
     6
 40
1.75
 49
0.5
 74
     0
 49
-0.25
 74
     0
 49
0.5
 74
     0
 49
-0.25
 74
     0
 49
0.0
 74
     0
 49
-0.25
 74
     0
  0
LTYPE
  5
30
330
5
100
AcDbSymbolTableRecord
100
AcDbLinetypeTableRecord
  2
BORDER2
 70
     0
  3
Border (.5x) __.__.__.__.__.__.
 72
    65
 73
     6
 40
0.875
 49
0.25
 74
     0
 49
-0.125
 74
     0
 49
0.25
 74
     0
 49
-0.125
 74
     0
 49
0.0
 74
     0
 49
-0.125
 74
     0
  0
LTYPE
  5
31
330
5
100
AcDbSymbolTableRecord
100
AcDbLinetypeTableRecord
  2
BORDERX2
 70
     0
  3
Border (2x) ____  ____  .  ____
 72
    65
 73
     6
 40
3.5
 49
1.0
 74
     0
 49
-0.5
 74
     0
 49
1.0
 74
     0
 49
-0.5
 74
     0
 49
0.0
 74
     0
 49
-0.5
 74
     0
  0
LTYPE
  5
32
330
5
100
AcDbSymbolTableRecord
100
AcDbLinetypeTableRecord
  2
CENTER2
 70
     0
  3
Center (.5x) ___ _ ___ _ ___ _ 
 72
    65
 73
     4
 40
1.125
 49
0.7500000000000001
 74
     0
 49
-0.125
 74
     0
 49
0.125
 74
     0
 49
-0.125
 74
     0
  0
LTYPE
  5
33
330
5
100
AcDbSymbolTableRecord
100
AcDbLinetypeTableRecord
  2
CENTERX2
 70
     0
  3
Center (2x) ________  __  _____
 72
    65
 73
     4
 40
4.0
 49
2.5
 74
     0
 49
-0.5
 74
     0
 49
0.5
 74
     0
 49
-0.5
 74
     0
  0
LTYPE
  5
34
330
5
100
AcDbSymbolTableRecord
100
AcDbLinetypeTableRecord
  2
DASHDOT2
 70
     0
  3
Dash dot (.5x) _._._._._._._._.
 72
    65
 73
     4
 40
0.5
 49
0.25
 74
     0
 49
-0.125
 74
     0
 49
0.0
 74
     0
 49
-0.125
 74
     0
  0
LTYPE
  5
35
330
5
100
AcDbSymbolTableRecord
100
AcDbLinetypeTableRecord
  2
DASHDOTX2
 70
     0
  3
Dash dot (2x) ____  .  ____  . 
 72
    65
 73
     4
 40
2.0
 49
1.0
 74
     0
 49
-0.5
 74
     0
 49
0.0
 74
     0
 49
-0.5
 74
     0
  0
LTYPE
  5
36
330
5
100
AcDbSymbolTableRecord
100
AcDbLinetypeTableRecord
  2
DASHED2
 70
     0
  3
Dashed (.5x) _ _ _ _ _ _ _ _ _ 
 72
    65
 73
     2
 40
0.375
 49
0.25
 74
     0
 49
-0.125
 74
     0
  0
LTYPE
  5
37
330
5
100
AcDbSymbolTableRecord
100
AcDbLinetypeTableRecord
  2
DASHEDX2
 70
     0
  3
Dashed (2x) ____  ____  ____  _
 72
    65
 73
     2
 40
1.5
 49
1.0
 74
     0
 49
-0.5
 74
     0
  0
LTYPE
  5
38
330
5
100
AcDbSymbolTableRecord
100
AcDbLinetypeTableRecord
  2
DIVIDE2
 70
     0
  3
Divide (.5x) __..__..__..__..__
 72
    65
 73
     6
 40
0.625
 49
0.25
 74
     0
 49
-0.125
 74
     0
 49
0.0
 74
     0
 49
-0.125
 74
     0
 49
0.0
 74
     0
 49
-0.125
 74
     0
  0
LTYPE
  5
39
330
5
100
AcDbSymbolTableRecord
100
AcDbLinetypeTableRecord
  2
DIVIDEX2
 70
     0
  3
Divide (2x) ________  .  .  ___
 72
    65
 73
     6
 40
2.5
 49
1.0
 74
     0
 49
-0.5
 74
     0
 49
0.0
 74
     0
 49
-0.5
 74
     0
 49
0.0
 74
     0
 49
-0.5
 74
     0
  0
LTYPE
  5
3A
330
5
100
AcDbSymbolTableRecord
100
AcDbLinetypeTableRecord
  2
DOT2
 70
     0
  3
Dot (.5x) .....................
 72
    65
 73
     2
 40
0.125
 49
0.0
 74
     0
 49
-0.125
 74
     0
  0
LTYPE
  5
3B
330
5
100
AcDbSymbolTableRecord
100
AcDbLinetypeTableRecord
  2
DOTX2
 70
     0
  3
Dot (2x) .  .  .  .  .  .  .  .
 72
    65
 73
     2
 40
0.5
 49
0.0
 74
     0
 49
-0.5
 74
     0
  0
LTYPE
  5
3C
330
5
100
AcDbSymbolTableRecord
100
AcDbLinetypeTableRecord
  2
HIDDEN2
 70
     0
  3
Hidden (.5x) _ _ _ _ _ _ _ _ _ 
 72
    65
 73
     2
 40
0.1875
 49
0.125
 74
     0
 49
-0.0625
 74
     0
  0
LTYPE
  5
3D
330
5
100
AcDbSymbolTableRecord
100
AcDbLinetypeTableRecord
  2
HIDDENX2
 70
     0
  3
Hidden (2x) ____ ____ ____ ____
 72
    65
 73
     2
 40
0.75
 49
0.5
 74
     0
 49
-0.25
 74
     0
  0
LTYPE
  5
3E
330
5
100
AcDbSymbolTableRecord
100
AcDbLinetypeTableRecord
  2
PHANTOM2
 70
     0
  3
Phantom (.5x) ___ _ _ ___ _ _ _
 72
    65
 73
     6
 40
1.25
 49
0.6250000000000001
 74
     0
 49
-0.125
 74
     0
 49
0.125
 74
     0
 49
-0.125
 74
     0
 49
0.125
 74
     0
 49
-0.125
 74
     0
  0
LTYPE
  5
3F
330
5
100
AcDbSymbolTableRecord
100
AcDbLinetypeTableRecord
  2
PHANTOMX2
 70
     0
  3
Phantom (2x) ____________    __
 72
    65
 73
     6
 40
5.0
 49
2.5
 74
     0
 49
-0.5
 74
     0
 49
0.5
 74
     0
 49
-0.5
 74
     0
 49
0.5
 74
     0
 49
-0.5
 74
     0
  0
LTYPE
  5
40
330
5
100
AcDbSymbolTableRecord
100
AcDbLinetypeTableRecord
  2
DOTS
 70
     0
  3
Dots - - - - - - - - - - - - - 
 72
    65
 73
     2
 40
0.1
 49
0.05
 74
     0
 49
-0.05
 74
     0
  0
LTYPE
  5
41
330
5
100
AcDbSymbolTableRecord
100
AcDbLinetypeTableRecord
  2
ACAD_ISO02W100
 70
     0
  3
__ __ __ __ __ __ __ __ __ __ _
 72
    65
 73
     2
 40
15.0
 49
12.0
 74
     0
 49
-3.0
 74
     0
  0
LTYPE
  5
42
330
5
100
AcDbSymbolTableRecord
100
AcDbLinetypeTableRecord
  2
ACAD_ISO03W100
 70
     0
  3
__    __    __    __    __    _
 72
    65
 73
     2
 40
30.0
 49
12.0
 74
     0
 49
-18.0
 74
     0
  0
LTYPE
  5
43
330
5
100
AcDbSymbolTableRecord
100
AcDbLinetypeTableRecord
  2
ACAD_ISO04W100
 70
     0
  3
____ . ____ . ____ . ____ . ___
 72
    65
 73
     4
 40
30.5
 49
24.0
 74
     0
 49
-3.0
 74
     0
 49
0.5
 74
     0
 49
-3.0
 74
     0
  0
LTYPE
  5
44
330
5
100
AcDbSymbolTableRecord
100
AcDbLinetypeTableRecord
  2
ACAD_ISO05W100
 70
     0
  3
____ .. ____ .. ____ .. ____ ..
 72
    65
 73
     6
 40
34.0
 49
24.0
 74
     0
 49
-3.0
 74
     0
 49
0.5
 74
     0
 49
-3.0
 74
     0
 49
0.5
 74
     0
 49
-3.0
 74
     0
  0
LTYPE
  5
45
330
5
100
AcDbSymbolTableRecord
100
AcDbLinetypeTableRecord
  2
ACAD_ISO06W100
 70
     0
  3
____ ... ____ ... ____ ... ____
 72
    65
 73
     6
 40
34.0
 49
24.0
 74
     0
 49
-3.0
 74
     0
 49
0.5
 74
     0
 49
-3.0
 74
     0
 49
0.5
 74
     0
 49
-3.0
 74
     0
  0
LTYPE
  5
46
330
5
100
AcDbSymbolTableRecord
100
AcDbLinetypeTableRecord
  2
ACAD_ISO07W100
 70
     0
  3
. . . . . . . . . . . . . . . .
 72
    65
 73
     2
 40
3.5
 49
0.5
 74
     0
 49
-3.0
 74
     0
  0
LTYPE
  5
47
330
5
100
AcDbSymbolTableRecord
100
AcDbLinetypeTableRecord
  2
ACAD_ISO08W100
 70
     0
  3
____ __ ____ __ ____ __ ____ __
 72
    65
 73
     4
 40
36.0
 49
24.0
 74
     0
 49
-3.0
 74
     0
 49
6.0
 74
     0
 49
-3.0
 74
     0
  0
LTYPE
  5
48
330
5
100
AcDbSymbolTableRecord
100
AcDbLinetypeTableRecord
  2
ACAD_ISO09W100
 70
     0
  3
____ __ __ ____ __ __ ____ __ _
 72
    65
 73
     6
 40
45.0
 49
24.0
 74
     0
 49
-3.0
 74
     0
 49
6.0
 74
     0
 49
-3.0
 74
     0
 49
6.0
 74
     0
 49
-3.0
 74
     0
  0
LTYPE
  5
49
330
5
100
AcDbSymbolTableRecord
100
AcDbLinetypeTableRecord
  2
ACAD_ISO10W100
 70
     0
  3
__ . __ . __ . __ . __ . __ . _
 72
    65
 73
     4
 40
18.5
 49
12.0
 74
     0
 49
-3.0
 74
     0
 49
0.5
 74
     0
 49
-3.0
 74
     0
  0
LTYPE
  5
4A
330
5
100
AcDbSymbolTableRecord
100
AcDbLinetypeTableRecord
  2
ACAD_ISO11W100
 70
     0
  3
__ __ . __ __ . __ __ . __ __ .
 72
    65
 73
     6
 40
33.5
 49
12.0
 74
     0
 49
-3.0
 74
     0
 49
12.0
 74
     0
 49
-3.0
 74
     0
 49
0.5
 74
     0
 49
-3.0
 74
     0
  0
LTYPE
  5
4B
330
5
100
AcDbSymbolTableRecord
100
AcDbLinetypeTableRecord
  2
ACAD_ISO12W100
 70
     0
  3
__ . . __ . . __ . . __ . . __ 
 72
    65
 73
     6
 40
22.0
 49
12.0
 74
     0
 49
-3.0
 74
     0
 49
0.5
 74
     0
 49
-3.0
 74
     0
 49
0.5
 74
     0
 49
-3.0
 74
     0
  0
LTYPE
  5
4C
330
5
100
AcDbSymbolTableRecord
100
AcDbLinetypeTableRecord
  2
ACAD_ISO13W100
 70
     0
  3
__ __ . . __ __ . . __ __ . . _
 72
    65
 73
     6
 40
33.5
 49
12.0
 74
     0
 49
-3.0
 74
     0
 49
12.0
 74
     0
 49
-3.0
 74
     0
 49
0.5
 74
     0
 49
-3.0
 74
     0
  0
LTYPE
  5
4D
330
5
100
AcDbSymbolTableRecord
100
AcDbLinetypeTableRecord
  2
ACAD_ISO14W100
 70
     0
  3
__ . . . __ . . . __ . . . __ .
 72
    65
 73
     6
 40
22.0
 49
12.0
 74
     0
 49
-3.0
 74
     0
 49
0.5
 74
     0
 49
-3.0
 74
     0
 49
0.5
 74
     0
 49
-3.0
 74
     0
  0
LTYPE
  5
4E
330
5
100
AcDbSymbolTableRecord
100
AcDbLinetypeTableRecord
  2
ACAD_ISO15W100
 70
     0
  3
__ __ . . . __ __ . . . __ __ .
 72
    65
 73
     6
 40
33.5
 49
12.0
 74
     0
 49
-3.0
 74
     0
 49
12.0
 74
     0
 49
-3.0
 74
     0
 49
0.5
 74
     0
 49
-3.0
 74
     0
  0
ENDTAB
  0
TABLE
  2
LAYER
  5
2
330
0
100
AcDbSymbolTable
 70
     2
  0
LAYER
  5
10
330
2
100
AcDbSymbolTableRecord
100
AcDbLayerTableRecord
  2
0
 70
     0
 62
     7
  6
CONTINUOUS
  0
LAYER
  5
4F
330
2
100
AcDbSymbolTableRecord
100
AcDbLayerTableRecord
  2
1
 70
     0
 62
     7
  6
CONTINUOUS
  0
ENDTAB
  0
TABLE
  2
STYLE
  5
3
330
0
100
AcDbSymbolTable
 70
     5
  0
STYLE
  5
11
330
3
100
AcDbSymbolTableRecord
100
AcDbTextStyleTableRecord
  2
STANDARD
 70
     0
 40
0.0
 41
1.0
 50
0.0
 71
     0
 42
0.15
  3
txt
  4

  0
STYLE
  5
50
330
3
100
AcDbSymbolTableRecord
100
AcDbTextStyleTableRecord
  2
ITALIC
 70
     0
 40
0.0
 41
1.0
 50
0.0
 71
     0
 42
0.15
  3
ITALIC
  4

  0
STYLE
  5
51
330
3
100
AcDbSymbolTableRecord
100
AcDbTextStyleTableRecord
  2
SIMPLEX
 70
     0
 40
0.0
 41
1.0
 50
0.0
 71
     0
 42
0.15
  3
SIMPLEX
  4

  0
STYLE
  5
52
330
3
100
AcDbSymbolTableRecord
100
AcDbTextStyleTableRecord
  2
COMPLEX
 70
     0
 40
0.0
 41
1.0
 50
0.0
 71
     0
 42
0.15
  3
COMPLEX
  4

  0
STYLE
  5
73
330
3
100
AcDbSymbolTableRecord
100
AcDbTextStyleTableRecord
  2
ARIAL
 70
     0
 40
0.0
 41
1.0
 50
0.0
 71
     0
 42
0.15
  3
ARIAL.TTF
  4

1001
ACAD
1000
Arial
1071
        0
  0
ENDTAB
  0
TABLE
  2
VIEW
  5
6
330
0
100
AcDbSymbolTable
 70
     0
  0
ENDTAB
  0
TABLE
  2
UCS
  5
7
330
0
100
AcDbSymbolTable
 70
     0
  0
ENDTAB
  0
TABLE
  2
APPID
  5
9
330
0
100
AcDbSymbolTable
 70
     1
  0
APPID
  5
12
330
9
100
AcDbSymbolTableRecord
100
AcDbRegAppTableRecord
  2
ACAD
 70
     0
  0
ENDTAB
  0
TABLE
  2
DIMSTYLE
  5
A
330
0
100
AcDbSymbolTable
 70
     1
  0
DIMSTYLE
105
27
330
A
100
AcDbSymbolTableRecord
100
AcDbDimStyleTableRecord
  2
STANDARD
 70
     0
  3

  4

  5

  6

  7

 40
1.0
 41
0.18
 42
0.0625
 43
0.38
 44
0.18
 45
0.0
 46
0.0
 47
0.0
 48
0.0
140
0.18
141
0.09
142
0.0
143
25.4
144
1.0
145
0.0
146
1.0
147
0.09
 71
     0
 72
     0
 73
     1
 74
     1
 75
     0
 76
     0
 77
     0
 78
     0
170
     0
171
     2
172
     0
173
     0
174
     0
175
     0
176
     0
177
     0
178
     0
270
     2
271
     4
272
     4
273
     2
274
     2
340
11
275
     0
280
     0
281
     0
282
     0
283
     1
284
     0
285
     0
286
     0
287
     3
288
     0
  0
ENDTAB
  0
TABLE
  2
BLOCK_RECORD
  5
1
330
0
100
AcDbSymbolTable
 70
     2
  0
BLOCK_RECORD
  5
1F
102
{ACAD_XDICTIONARY
360
177
102
}
330
1
100
AcDbSymbolTableRecord
100
AcDbBlockTableRecord
  2
*MODEL_SPACE
  0
BLOCK_RECORD
  5
1B
102
{ACAD_XDICTIONARY
360
175
102
}
330
1
100
AcDbSymbolTableRecord
100
AcDbBlockTableRecord
  2
*PAPER_SPACE
  0
BLOCK_RECORD
  5
78
330
1
100
AcDbSymbolTableRecord
100
AcDbBlockTableRecord
  2
LONGARROW
  0
ENDTAB
  0
ENDSEC
  0
SECTION
  2
BLOCKS
  0
BLOCK
  5
20
330
1F
100
AcDbEntity
  8
0
100
AcDbBlockBegin
  2
*MODEL_SPACE
 70
     0
 10
0.0
 20
0.0
 30
0.0
  3
*MODEL_SPACE
  1

  0
ENDBLK
  5
21
330
1F
100
AcDbEntity
  8
0
100
AcDbBlockEnd
  0
BLOCK
  5
1C
330
1B
100
AcDbEntity
 67
     1
  8
0
100
AcDbBlockBegin
  2
*PAPER_SPACE
 70
     0
 10
0.0
 20
0.0
 30
0.0
  3
*PAPER_SPACE
  1

  0
ENDBLK
  5
1D
330
1B
100
AcDbEntity
 67
     1
  8
0
100
AcDbBlockEnd
  0
BLOCK
  5
7B
330
78
100
AcDbEntity
  8
0
 62
     7
100
AcDbBlockBegin
  2
LONGARROW
 70
     0
 10
0.0
 20
0.0
 30
0.0
  3
LONGARROW
  1

  0
LWPOLYLINE
  5
79
102
{ACAD_REACTORS
330
7A
102
}
330
78
100
AcDbEntity
  8
1
  6
CONTINUOUS
 62
     0
100
AcDbPolyline
 90
        3
 70
     1
 43
0.0
 10
0.0
 20
0.0
 10
2.0
 20
-0.25
 10
2.0
 20
0.25
  0
HATCH
  5
7A
330
78
100
AcDbEntity
  8
1
  6
CONTINUOUS
 62
     0
100
AcDbHatch
 10
0.0
 20
0.0
 30
0.0
210
0.0
220
0.0
230
1.0
  2
SOLID
 70
     1
 71
     1
 91
        1
 92
        1
 93
        3
 72
     1
 10
0.0
 20
0.0
 11
2.0
 21
-0.25
 72
     1
 10
2.0
 20
-0.25
 11
2.0
 21
0.25
 72
     1
 10
2.0
 20
0.25
 11
0.0
 21
0.0
 97
        1
330
79
 75
     0
 76
     1
 98
        1
 10
0.0
 20
0.0
  0
ENDBLK
  5
7C
330
78
100
AcDbEntity
  8
0
 62
     7
100
AcDbBlockEnd
  0
ENDSEC
  0
SECTION
  2
ENTITIES
  0
LWPOLYLINE
  5
53
330
1F
100
AcDbEntity
  8
1
  6
CONTINUOUS
 62
     7
100
AcDbPolyline
 90
        4
 70
     1
 43
0.0
 10
5.0
 20
1.387928385092452
 10
8.0
 20
1.387928385092452
 10
8.0
 20
0.3879283850924523
 10
5.0
 20
0.3879283850924523
  0
CIRCLE
  5
54
330
1F
100
AcDbEntity
  8
1
  6
CONTINUOUS
 62
     7
100
AcDbCircle
 10
1.647269710674657
 20
3.895096464022284
 30
0.0
 40
0.0430000000000002
  0
CIRCLE
  5
55
330
1F
100
AcDbEntity
  8
1
  6
CONTINUOUS
 62
     7
100
AcDbCircle
 10
2.599742544932937
 20
3.895096464022284
 30
0.0
 40
0.0430000000000002
  0
CIRCLE
  5
56
330
1F
100
AcDbEntity
  8
1
  6
CONTINUOUS
 62
     7
100
AcDbCircle
 10
2.123506127803797
 20
4.371332881151424
 30
0.0
 40
0.5484999999999998
  0
LWPOLYLINE
  5
57
330
1F
100
AcDbEntity
  8
1
  6
CONTINUOUS
 62
     7
100
AcDbPolyline
 90
       10
 70
     1
 43
0.0
 10
1.5295061278038
 20
9.000332881151422
 10
2.717506127803793
 20
9.000332881151422
 10
2.717506127803793
 20
7.195332881151424
 10
2.597506127803776
 20
7.195332881151424
 10
2.597506127803776
 20
7.015332881151423
 10
2.717506127803793
 20
7.015332881151423
 10
2.717506127803793
 20
2.506332881151424
 10
2.537506127803792
 20
2.326332881151424
 10
1.709506127803801
 20
2.326332881151424
 10
1.5295061278038
 20
2.506332881151424
  0
CIRCLE
  5
58
330
1F
100
AcDbEntity
  8
1
  6
CONTINUOUS
 62
     7
100
AcDbCircle
 10
2.123506127803797
 20
7.917332881151423
 30
0.0
 40
0.5484999999999998
  0
CIRCLE
  5
59
330
1F
100
AcDbEntity
  8
1
  6
CONTINUOUS
 62
     7
100
AcDbCircle
 10
2.123506127803797
 20
5.605332881151424
 30
0.0
 40
0.5484999999999998
  0
CIRCLE
  5
5A
330
1F
100
AcDbEntity
  8
1
  6
CONTINUOUS
 62
     7
100
AcDbCircle
 10
2.123506127803797
 20
3.137332881151424
 30
0.0
 40
0.5484999999999998
  0
CIRCLE
  5
5B
330
1F
100
AcDbEntity
  8
1
  6
CONTINUOUS
 62
     7
100
AcDbCircle
 10
2.123506127803797
 20
7.105332881151424
 30
0.0
 40
0.1984999999999992
  0
CIRCLE
  5
5C
330
1F
100
AcDbEntity
  8
1
  6
CONTINUOUS
 62
     7
100
AcDbCircle
 10
2.123506127803797
 20
6.717332881151423
 30
0.0
 40
0.1560000000000006
  0
CIRCLE
  5
5D
330
1F
100
AcDbEntity
  8
1
  6
CONTINUOUS
 62
     7
100
AcDbCircle
 10
2.599742544932937
 20
3.613569298280564
 30
0.0
 40
0.0430000000000002
  0
CIRCLE
  5
5E
330
1F
100
AcDbEntity
  8
1
  6
CONTINUOUS
 62
     7
100
AcDbCircle
 10
1.647269710674657
 20
3.613569298280564
 30
0.0
 40
0.0430000000000002
  0
CIRCLE
  5
5F
330
1F
100
AcDbEntity
  8
1
  6
CONTINUOUS
 62
     7
100
AcDbCircle
 10
1.647269710674657
 20
2.661096464022284
 30
0.0
 40
0.0430000000000002
  0
CIRCLE
  5
60
330
1F
100
AcDbEntity
  8
1
  6
CONTINUOUS
 62
     7
100
AcDbCircle
 10
2.599742544932937
 20
2.661096464022284
 30
0.0
 40
0.0430000000000002
  0
CIRCLE
  5
61
330
1F
100
AcDbEntity
  8
1
  6
CONTINUOUS
 62
     7
100
AcDbCircle
 10
2.599742544932937
 20
4.847569298280564
 30
0.0
 40
0.0430000000000002
  0
CIRCLE
  5
62
330
1F
100
AcDbEntity
  8
1
  6
CONTINUOUS
 62
     7
100
AcDbCircle
 10
1.647269710674657
 20
4.847569298280564
 30
0.0
 40
0.0430000000000002
  0
CIRCLE
  5
63
330
1F
100
AcDbEntity
  8
1
  6
CONTINUOUS
 62
     7
100
AcDbCircle
 10
1.647269710674657
 20
4.847569298280564
 30
0.0
 40
0.0430000000000002
  0
CIRCLE
  5
64
330
1F
100
AcDbEntity
  8
1
  6
CONTINUOUS
 62
     7
100
AcDbCircle
 10
1.647269710674657
 20
5.129096464022284
 30
0.0
 40
0.0430000000000002
  0
CIRCLE
  5
65
330
1F
100
AcDbEntity
  8
1
  6
CONTINUOUS
 62
     7
100
AcDbCircle
 10
1.647269710674657
 20
6.081569298280564
 30
0.0
 40
0.0430000000000002
  0
CIRCLE
  5
66
330
1F
100
AcDbEntity
  8
1
  6
CONTINUOUS
 62
     7
100
AcDbCircle
 10
2.599742544932937
 20
6.081569298280564
 30
0.0
 40
0.0430000000000002
  0
CIRCLE
  5
67
330
1F
100
AcDbEntity
  8
1
  6
CONTINUOUS
 62
     7
100
AcDbCircle
 10
2.599742544932937
 20
5.129096464022284
 30
0.0
 40
0.0430000000000002
  0
CIRCLE
  5
68
330
1F
100
AcDbEntity
  8
1
  6
CONTINUOUS
 62
     7
100
AcDbCircle
 10
2.599742544932937
 20
4.847569298280564
 30
0.0
 40
0.0430000000000002
  0
CIRCLE
  5
69
330
1F
100
AcDbEntity
  8
1
  6
CONTINUOUS
 62
     7
100
AcDbCircle
 10
2.599742544932937
 20
8.39356929828056
 30
0.0
 40
0.0430000000000002
  0
CIRCLE
  5
6A
330
1F
100
AcDbEntity
  8
1
  6
CONTINUOUS
 62
     7
100
AcDbCircle
 10
1.647269710674656
 20
8.39356929828056
 30
0.0
 40
0.0430000000000002
  0
CIRCLE
  5
6B
330
1F
100
AcDbEntity
  8
1
  6
CONTINUOUS
 62
     7
100
AcDbCircle
 10
1.647269710674657
 20
7.441096464022285
 30
0.0
 40
0.0430000000000002
  0
CIRCLE
  5
6C
330
1F
100
AcDbEntity
  8
1
  6
CONTINUOUS
 62
     7
100
AcDbCircle
 10
2.599742544932936
 20
7.441096464022283
 30
0.0
 40
0.0430000000000002
  0
LINE
  5
6D
330
1F
100
AcDbEntity
  8
1
  6
CONTINUOUS
 62
     7
100
AcDbLine
 10
2.317292737248309
 20
7.148332881151424
 30
0.0
 11
2.597506127803776
 21
7.148332881151424
 31
0.0
  0
LINE
  5
6E
330
1F
100
AcDbEntity
  8
1
  6
CONTINUOUS
 62
     7
100
AcDbLine
 10
2.317292737248309
 20
7.062332881151424
 30
0.0
 11
2.597506127803776
 21
7.062332881151424
 31
0.0
  0
LWPOLYLINE
  5
6F
330
1F
100
AcDbEntity
  8
1
  6
CONTINUOUS
 62
     7
100
AcDbPolyline
 90
        4
 70
     1
 43
0.0
 10
1.7055061278038
 20
9.000332881151422
 10
1.7915061278038
 20
9.000332881151422
 10
1.7915061278038
 20
8.690332881151419
 10
1.7055061278038
 20
8.690332881151419
  0
LWPOLYLINE
  5
70
330
1F
100
AcDbEntity
  8
1
  6
CONTINUOUS
 62
     7
100
AcDbPolyline
 90
        4
 70
     1
 43
0.0
 10
2.455506127803793
 20
8.690332881151419
 10
2.541506127803793
 20
8.690332881151419
 10
2.541506127803793
 20
9.000332881151422
 10
2.455506127803793
 20
9.000332881151422
  0
LINE
  5
71
330
1F
100
AcDbEntity
  8
1
  6
CONTINUOUS
 62
     7
100
AcDbLine
 10
1.5295061278038
 20
8.690332881151419
 30
0.0
 11
2.717506127803794
 21
8.690332881151419
 31
0.0
  0
LINE
  5
72
330
1F
100
AcDbEntity
  8
1
  6
CONTINUOUS
 62
     7
100
AcDbLine
 10
2.717506127803793
 20
8.880332881151421
 30
0.0
 11
1.5295061278038
 21
8.880332881151421
 31
0.0
  0
TEXT
  5
74
330
1F
100
AcDbEntity
  8
1
  6
CONTINUOUS
 62
     7
100
AcDbText
 10
0.661616757699581
 20
9.437832881151422
 30
0.0
 40
0.125
  1
0.219"
  7
ARIAL
 72
     1
 11
0.8855786902842242
 21
9.500332881151422
 31
0.0
100
AcDbText
 73
     2
  0
LINE
  5
75
330
1F
100
AcDbEntity
  8
1
  6
CONTINUOUS
 62
     7
100
AcDbLine
 10
1.7485061278038
 20
9.125332881151422
 30
0.0
 11
1.7485061278038
 21
9.750332881151422
 31
0.0
  0
LINE
  5
76
330
1F
100
AcDbEntity
  8
1
  6
CONTINUOUS
 62
     7
100
AcDbLine
 10
1.5295061278038
 20
9.500332881151422
 30
0.0
 11
1.1545061278038
 21
9.500332881151422
 31
0.0
  0
LINE
  5
77
330
1F
100
AcDbEntity
  8
1
  6
CONTINUOUS
 62
     7
100
AcDbLine
 10
1.7485061278038
 20
9.500332881151422
 30
0.0
 11
2.1235061278038
 21
9.500332881151422
 31
0.0
  0
INSERT
  5
7D
330
1F
100
AcDbEntity
  8
1
  6
CONTINUOUS
 62
     7
100
AcDbBlockReference
  2
LONGARROW
 10
1.5295061278038
 20
9.500332881151422
 30
0.0
 41
0.125
 42
0.125
 50
180.0
  0
INSERT
  5
7E
330
1F
100
AcDbEntity
  8
1
  6
CONTINUOUS
 62
     7
100
AcDbBlockReference
  2
LONGARROW
 10
1.7485061278038
 20
9.500332881151422
 30
0.0
 41
0.125
 42
0.125
  0
TEXT
  5
7F
330
1F
100
AcDbEntity
  8
1
  6
CONTINUOUS
 62
     7
100
AcDbText
 10
3.204487108065953
 20
9.9375
 30
0.0
 40
0.125
  1
1.188"
  7
ARIAL
 72
     1
 11
3.428449040650597
 21
10.0
 31
0.0
100
AcDbText
 73
     2
  0
LINE
  5
80
330
1F
100
AcDbEntity
  8
1
  6
CONTINUOUS
 62
     7
100
AcDbLine
 10
1.5295061278038
 20
9.125332881151422
 30
0.0
 11
1.5295061278038
 21
10.25
 31
0.0
  0
LINE
  5
81
330
1F
100
AcDbEntity
  8
1
  6
CONTINUOUS
 62
     7
100
AcDbLine
 10
2.717506127803793
 20
9.125332881151422
 30
0.0
 11
2.717506127803793
 21
10.25
 31
0.0
  0
LINE
  5
82
330
1F
100
AcDbEntity
  8
1
  6
CONTINUOUS
 62
     7
100
AcDbLine
 10
1.5295061278038
 20
10.0
 30
0.0
 11
1.1545061278038
 21
10.0
 31
0.0
  0
LINE
  5
83
330
1F
100
AcDbEntity
  8
1
  6
CONTINUOUS
 62
     7
100
AcDbLine
 10
2.717506127803793
 20
10.0
 30
0.0
 11
3.092506127803793
 21
10.0
 31
0.0
  0
INSERT
  5
84
330
1F
100
AcDbEntity
  8
1
  6
CONTINUOUS
 62
     7
100
AcDbBlockReference
  2
LONGARROW
 10
1.5295061278038
 20
10.0
 30
0.0
 41
0.125
 42
0.125
 50
180.0
  0
INSERT
  5
85
330
1F
100
AcDbEntity
  8
1
  6
CONTINUOUS
 62
     7
100
AcDbBlockReference
  2
LONGARROW
 10
2.717506127803793
 20
10.0
 30
0.0
 41
0.125
 42
0.125
  0
TEXT
  5
86
330
1F
100
AcDbEntity
  8
1
  6
CONTINUOUS
 62
     7
100
AcDbText
 10
3.276038067415356
 20
9.6875
 30
0.0
 40
0.125
  1
0.219"
  7
ARIAL
 72
     1
 11
3.5
 21
9.75
 31
0.0
100
AcDbText
 73
     2
  0
LINE
  5
87
330
1F
100
AcDbEntity
  8
1
  6
CONTINUOUS
 62
     7
100
AcDbLine
 10
2.717506127803793
 20
9.125332881151422
 30
0.0
 11
2.717506127803793
 21
10.0
 31
0.0
  0
LINE
  5
88
330
1F
100
AcDbEntity
  8
1
  6
CONTINUOUS
 62
     7
100
AcDbLine
 10
2.498506127803794
 20
9.125332881151422
 30
0.0
 11
2.498506127803794
 21
10.0
 31
0.0
  0
LINE
  5
89
330
1F
100
AcDbEntity
  8
1
  6
CONTINUOUS
 62
     7
100
AcDbLine
 10
2.717506127803793
 20
9.75
 30
0.0
 11
3.092506127803793
 21
9.75
 31
0.0
  0
LINE
  5
8A
330
1F
100
AcDbEntity
  8
1
  6
CONTINUOUS
 62
     7
100
AcDbLine
 10
2.498506127803794
 20
9.75
 30
0.0
 11
2.123506127803794
 21
9.75
 31
0.0
  0
INSERT
  5
8B
330
1F
100
AcDbEntity
  8
1
  6
CONTINUOUS
 62
     7
100
AcDbBlockReference
  2
LONGARROW
 10
2.717506127803793
 20
9.75
 30
0.0
 41
0.125
 42
0.125
  0
INSERT
  5
8C
330
1F
100
AcDbEntity
  8
1
  6
CONTINUOUS
 62
     7
100
AcDbBlockReference
  2
LONGARROW
 10
2.498506127803794
 20
9.75
 30
0.0
 41
0.125
 42
0.125
 50
180.0
  0
INSERT
  5
8D
330
1F
100
AcDbEntity
  8
1
  6
CONTINUOUS
 62
     7
100
AcDbBlockReference
  2
LONGARROW
 10
2.599742544932937
 20
5.129096464022284
 30
0.0
 41
0.125
 42
0.125
 50
15.75377290198479
  0
LWPOLYLINE
  5
8E
330
1F
100
AcDbEntity
  8
1
  6
CONTINUOUS
 62
     7
100
AcDbPolyline
 90
        3
 70
     0
 43
0.0
 10
2.599742544932937
 20
5.129096464022284
 10
3.0295061278038
 20
5.250332881151424
 10
3.2795061278038
 20
5.250332881151424
  0
TEXT
  5
8F
330
1F
100
AcDbEntity
  8
1
  6
CONTINUOUS
 62
     7
100
AcDbText
 10
3.2795061278038
 20
5.187832881151424
 30
0.0
 40
0.125
  1
16x #2-56 NC
  7
ARIAL
 11
3.2795061278038
 21
5.250332881151424
 31
0.0
100
AcDbText
 73
     2
  0
TEXT
  5
90
330
1F
100
AcDbEntity
  8
1
  6
CONTINUOUS
 62
     7
100
AcDbText
 10
3.555544195219157
 20
6.489364431825982
 30
0.0
 40
0.125
  1
0.180"
  7
ARIAL
 72
     1
 11
3.7795061278038
 21
6.551864431825982
 31
0.0
100
AcDbText
 73
     2
  0
LINE
  5
91
330
1F
100
AcDbEntity
  8
1
  6
CONTINUOUS
 62
     7
100
AcDbLine
 10
2.842506127803793
 20
7.015332881151423
 30
0.0
 11
4.0295061278038
 21
7.015332881151423
 31
0.0
  0
LINE
  5
92
330
1F
100
AcDbEntity
  8
1
  6
CONTINUOUS
 62
     7
100
AcDbLine
 10
2.842506127803793
 20
7.195332881151424
 30
0.0
 11
4.0295061278038
 21
7.195332881151424
 31
0.0
  0
LINE
  5
93
330
1F
100
AcDbEntity
  8
1
  6
CONTINUOUS
 62
     7
100
AcDbLine
 10
3.7795061278038
 20
7.015332881151423
 30
0.0
 11
3.779506127803801
 21
6.640332881151423
 31
0.0
  0
LINE
  5
94
330
1F
100
AcDbEntity
  8
1
  6
CONTINUOUS
 62
     7
100
AcDbLine
 10
3.7795061278038
 20
7.195332881151424
 30
0.0
 11
3.7795061278038
 21
7.570332881151424
 31
0.0
  0
INSERT
  5
95
330
1F
100
AcDbEntity
  8
1
  6
CONTINUOUS
 62
     7
100
AcDbBlockReference
  2
LONGARROW
 10
3.7795061278038
 20
7.015332881151423
 30
0.0
 41
0.125
 42
0.125
 50
270.0
  0
INSERT
  5
96
330
1F
100
AcDbEntity
  8
1
  6
CONTINUOUS
 62
     7
100
AcDbBlockReference
  2
LONGARROW
 10
3.7795061278038
 20
7.195332881151424
 30
0.0
 41
0.125
 42
0.125
 50
90.00000000000005
  0
TEXT
  5
97
330
1F
100
AcDbEntity
  8
1
  6
CONTINUOUS
 62
     7
100
AcDbText
 10
3.133680081703889
 20
6.814659672295114
 30
0.0
 40
0.125
  1
0.120"
  7
ARIAL
 72
     1
 11
3.357642014288533
 21
6.877159672295114
 31
0.0
100
AcDbText
 73
     2
  0
LINE
  5
98
330
1F
100
AcDbEntity
  8
1
  6
CONTINUOUS
 62
     7
100
AcDbLine
 10
2.597506127803776
 20
6.915332881151424
 30
0.0
 11
2.597506127803776
 21
6.778261768538607
 31
0.0
  0
LINE
  5
99
330
1F
100
AcDbEntity
  8
1
  6
CONTINUOUS
 62
     7
100
AcDbLine
 10
2.717506127803793
 20
6.915332881151424
 30
0.0
 11
2.717506127803793
 21
6.778261768538607
 31
0.0
  0
LINE
  5
9A
330
1F
100
AcDbEntity
  8
1
  6
CONTINUOUS
 62
     7
100
AcDbLine
 10
2.597506127803776
 20
6.878261768538607
 30
0.0
 11
2.222506127803776
 21
6.878261768538607
 31
0.0
  0
LINE
  5
9B
330
1F
100
AcDbEntity
  8
1
  6
CONTINUOUS
 62
     7
100
AcDbLine
 10
2.717506127803793
 20
6.878261768538607
 30
0.0
 11
3.092506127803793
 21
6.878261768538607
 31
0.0
  0
INSERT
  5
9C
330
1F
100
AcDbEntity
  8
1
  6
CONTINUOUS
 62
     7
100
AcDbBlockReference
  2
LONGARROW
 10
2.597506127803776
 20
6.878261768538607
 30
0.0
 41
0.125
 42
0.125
 50
180.0
  0
INSERT
  5
9D
330
1F
100
AcDbEntity
  8
1
  6
CONTINUOUS
 62
     7
100
AcDbBlockReference
  2
LONGARROW
 10
2.717506127803793
 20
6.878261768538607
 30
0.0
 41
0.125
 42
0.125
  0
LINE
  5
9E
330
1F
100
AcDbEntity
  8
1
  6
CONTINUOUS
 62
     7
100
AcDbLine
 10
2.268953223297754
 20
7.240415790552916
 30
0.0
 11
2.543727333172988
 21
7.495610203779916
 31
0.0
  0
LINE
  5
9F
330
1F
100
AcDbEntity
  8
1
  6
CONTINUOUS
 62
     7
100
AcDbLine
 10
2.543727333172988
 20
7.495610203779916
 30
0.0
 11
2.918727333172988
 21
7.495610203779916
 31
0.0
  0
INSERT
  5
A0
330
1F
100
AcDbEntity
  8
1
  6
CONTINUOUS
 62
     7
100
AcDbBlockReference
  2
LONGARROW
 10
2.268953223297754
 20
7.240415790552916
 30
0.0
 41
0.125
 42
0.125
 50
42.88416869890781
  0
TEXT
  5
A1
330
1F
100
AcDbEntity
  8
1
  6
CONTINUOUS
 62
     7
100
AcDbText
 10
3.069895165487956
 20
7.433110203779916
 30
0.0
 40
0.125
  1
R 0.199"
  7
ARIAL
 72
     1
 11
3.37223080031557
 21
7.495610203779916
 31
0.0
100
AcDbText
 73
     2
  0
LINE
  5
A2
330
1F
100
AcDbEntity
  8
1
  6
CONTINUOUS
 62
     7
100
AcDbLine
 10
2.216768448157623
 20
6.592280333787443
 30
0.0
 11
2.440956718238936
 21
6.291673248777877
 31
0.0
  0
LINE
  5
A3
330
1F
100
AcDbEntity
  8
1
  6
CONTINUOUS
 62
     7
100
AcDbLine
 10
2.440956718238936
 20
6.291673248777877
 30
0.0
 11
2.815956718238936
 21
6.291673248777877
 31
0.0
  0
INSERT
  5
A4
330
1F
100
AcDbEntity
  8
1
  6
CONTINUOUS
 62
     7
100
AcDbBlockReference
  2
LONGARROW
 10
2.216768448157623
 20
6.592280333787443
 30
0.0
 41
0.125
 42
0.125
 50
306.7150254464024
  0
TEXT
  5
A5
330
1F
100
AcDbEntity
  8
1
  6
CONTINUOUS
 62
     7
100
AcDbText
 10
2.967124550553904
 20
6.229173248777877
 30
0.0
 40
0.125
  1
R 0.156"
  7
ARIAL
 72
     1
 11
3.269460185381518
 21
6.291673248777877
 31
0.0
100
AcDbText
 73
     2
  0
LWPOLYLINE
  5
A6
330
1F
100
AcDbEntity
  8
1
  6
CONTINUOUS
 62
     7
100
AcDbPolyline
 90
       10
 70
     0
 43
0.0
 10
6.615775218997508
 20
2.326332881151424
 10
6.650775218997514
 20
2.32633288115143
 10
6.740775218997514
 20
2.416332881151424
 10
6.740775218997515
 20
8.690332881151423
 10
6.850775218997515
 20
8.88
 10
6.850775218997515
 20
9.000188036642969
 10
6.478775218997507
 20
9.000332881151424
 10
6.478775218997507
 20
8.830332881151424
 10
6.615775218997508
 20
8.830332881151424
 10
6.615775218997508
 20
2.601332881151424
  0
LINE
  5
A7
330
1F
100
AcDbEntity
  8
1
  6
CONTINUOUS
 62
     7
100
AcDbLine
 10
6.615775218997508
 20
7.195332881151424
 30
0.0
 11
6.740775218997514
 21
7.195332881151424
 31
0.0
  0
LINE
  5
A8
330
1F
100
AcDbEntity
  8
1
  6
CONTINUOUS
 62
     7
100
AcDbLine
 10
6.615775218997508
 20
7.015332881151423
 30
0.0
 11
6.740775218997514
 21
7.015332881151423
 31
0.0
  0
CIRCLE
  5
A9
330
1F
100
AcDbEntity
  8
1
  6
CONTINUOUS
 62
     7
100
AcDbCircle
 10
6.678275218997511
 20
7.105332881151424
 30
0.0
 40
0.0430000000000002
  0
LINE
  5
AA
330
1F
100
AcDbEntity
  8
1
  6
CONTINUOUS
 62
     7
100
AcDbLine
 10
5.515775218997514
 20
2.50633288115143
 30
0.0
 11
6.740775218997514
 21
2.506332881151425
 31
0.0
  0
TEXT
  5
AB
330
1F
100
AcDbEntity
  8
1
  6
CONTINUOUS
 62
     7
100
AcDbText
 10
3.766580391034225
 20
9.427819895997386
 30
0.0
 40
0.125
  1
0.120"
  7
ARIAL
 72
     1
 11
3.990542323618869
 21
9.490319895997386
 31
0.0
100
AcDbText
 73
     2
  0
LINE
  5
AC
330
1F
100
AcDbEntity
  8
1
  6
CONTINUOUS
 62
     7
100
AcDbLine
 10
2.842506127803793
 20
9.000332881151422
 30
0.0
 11
4.240542323618869
 21
9.000332881151422
 31
0.0
  0
LINE
  5
AD
330
1F
100
AcDbEntity
  8
1
  6
CONTINUOUS
 62
     7
100
AcDbLine
 10
2.842506127803793
 20
8.880332881151421
 30
0.0
 11
4.240542323618869
 21
8.880332881151421
 31
0.0
  0
LINE
  5
AE
330
1F
100
AcDbEntity
  8
1
  6
CONTINUOUS
 62
     7
100
AcDbLine
 10
3.990542323618869
 20
9.000332881151422
 30
0.0
 11
3.990542323618869
 21
9.375332881151422
 31
0.0
  0
LINE
  5
AF
330
1F
100
AcDbEntity
  8
1
  6
CONTINUOUS
 62
     7
100
AcDbLine
 10
3.990542323618869
 20
8.880332881151421
 30
0.0
 11
3.99054232361887
 21
8.505332881151421
 31
0.0
  0
INSERT
  5
B0
330
1F
100
AcDbEntity
  8
1
  6
CONTINUOUS
 62
     7
100
AcDbBlockReference
  2
LONGARROW
 10
3.990542323618869
 20
9.000332881151422
 30
0.0
 41
0.125
 42
0.125
 50
90.00000000000007
  0
INSERT
  5
B1
330
1F
100
AcDbEntity
  8
1
  6
CONTINUOUS
 62
     7
100
AcDbBlockReference
  2
LONGARROW
 10
3.990542323618869
 20
8.880332881151421
 30
0.0
 41
0.125
 42
0.125
 50
270.0
  0
LWPOLYLINE
  5
B2
330
1F
100
AcDbEntity
  8
1
  6
CONTINUOUS
 62
     7
100
AcDbPolyline
 90
        4
 70
     1
 43
0.0
 10
6.639775218997508
 20
9.000332881151424
 10
6.725775218997508
 20
9.000332881151424
 10
6.725775218997508
 20
8.690332881151423
 10
6.639775218997508
 20
8.690332881151423
  0
LWPOLYLINE
  5
B3
330
1F
100
AcDbEntity
  8
1
  6
CONTINUOUS
 62
     7
100
AcDbPolyline
 90
        4
 70
     0
 43
0.0
 10
1.5295061278038
 20
2.601376244815318
 10
1.624549491467694
 20
2.506332881151424
 10
2.6224627641399
 20
2.506332881151424
 10
2.717506127803793
 20
2.601376244815317
  0
LWPOLYLINE
  5
B4
330
1F
100
AcDbEntity
  8
1
  6
CONTINUOUS
 62
     7
100
AcDbPolyline
 90
        5
 70
     0
 43
0.0
 10
6.615775218997508
 20
2.326332881151424
 10
5.605775218927582
 20
2.326293065423665
 10
5.515775218997514
 20
2.41628951748753
 10
5.515775218997514
 20
2.601332881151424
 10
6.615775218997508
 20
2.601332881151424
  0
LINE
  5
B5
330
1F
100
AcDbEntity
  8
1
  6
CONTINUOUS
 62
     7
100
AcDbLine
 10
2.805894475452112
 20
2.594721228799742
 30
0.0
 11
3.298561512544819
 21
3.087388265892449
 31
0.0
  0
TEXT
  5
B6
330
1F
100
AcDbEntity
  8
1
  6
CONTINUOUS
 62
     7
100
AcDbText
 10
3.070087869915433
 20
2.642589923667487
 30
0.0
 40
0.125
  1
2x 45°
  7
ARIAL
 72
     1
 11
3.29318474911458
 21
2.705089923667487
 31
0.0
100
AcDbText
 73
     2
  0
ARC
  5
B7
330
1F
100
AcDbEntity
  8
1
  6
CONTINUOUS
 62
     7
100
AcDbCircle
 10
2.717506127803793
 20
2.506332881151424
 30
0.0
 40
0.5717364055906753
100
AcDbArc
 50
28.98681084701941
 51
44.99999999999994
  0
ARC
  5
B8
330
1F
100
AcDbEntity
  8
1
  6
CONTINUOUS
 62
     7
100
AcDbCircle
 10
2.717506127803793
 20
2.506332881151424
 30
0.0
 40
0.5717364055906753
100
AcDbArc
 50
44.99999999999994
 51
90.00000000000005
  0
INSERT
  5
B9
330
1F
100
AcDbEntity
  8
1
  6
CONTINUOUS
 62
     7
100
AcDbBlockReference
  2
LONGARROW
 10
3.121784817248182
 20
2.910611570595813
 30
0.0
 41
0.075
 42
0.075
 50
142.5160221064489
  0
INSERT
  5
BA
330
1F
100
AcDbEntity
  8
1
  6
CONTINUOUS
 62
     7
100
AcDbBlockReference
  2
LONGARROW
 10
2.717506127803793
 20
3.0780692867421
 30
0.0
 41
0.075
 42
0.075
 50
352.483977893551
  0
LINE
  5
BB
330
1F
100
AcDbEntity
  8
1
  6
DOT
 62
     7
100
AcDbLine
 10
6.615775218997508
 20
2.588832881151423
 30
0.0
 11
6.740775218997514
 21
2.588832881151422
 31
0.0
  0
LINE
  5
BC
330
1F
100
AcDbEntity
  8
1
  6
DOT
 62
     7
100
AcDbLine
 10
6.615775218997508
 20
3.685832881151426
 30
0.0
 11
6.740775218997513
 21
3.685832881151426
 31
0.0
  0
LINE
  5
BD
330
1F
100
AcDbEntity
  8
1
  6
DOT
 62
     7
100
AcDbLine
 10
6.615775218997508
 20
3.822832881151427
 30
0.0
 11
6.740775218997513
 21
3.822832881151427
 31
0.0
  0
LINE
  5
BE
330
1F
100
AcDbEntity
  8
1
  6
DOT
 62
     7
100
AcDbLine
 10
6.615775218997508
 20
4.919832881151421
 30
0.0
 11
6.740775218997516
 21
4.919832881151421
 31
0.0
  0
LINE
  5
BF
330
1F
100
AcDbEntity
  8
1
  6
DOT
 62
     7
100
AcDbLine
 10
6.615775218997508
 20
5.056832881151423
 30
0.0
 11
6.740775218997516
 21
5.056832881151423
 31
0.0
  0
LINE
  5
C0
330
1F
100
AcDbEntity
  8
1
  6
DOT
 62
     7
100
AcDbLine
 10
6.615775218997508
 20
6.153832881151425
 30
0.0
 11
6.740775218997514
 21
6.153832881151425
 31
0.0
  0
LINE
  5
C1
330
1F
100
AcDbEntity
  8
1
  6
DOT
 62
     7
100
AcDbLine
 10
6.615775218997508
 20
7.368832881151424
 30
0.0
 11
6.740775218997517
 21
7.368832881151424
 31
0.0
  0
LINE
  5
C2
330
1F
100
AcDbEntity
  8
1
  6
DOT
 62
     7
100
AcDbLine
 10
6.615775218997508
 20
8.465832881151424
 30
0.0
 11
6.740775218997515
 21
8.465832881151424
 31
0.0
  0
LINE
  5
C3
330
1F
100
AcDbEntity
  8
1
  6
DOT
 62
     7
100
AcDbLine
 10
6.615775218997508
 20
6.873332881151421
 30
0.0
 11
6.740775218997514
 21
6.873332881151421
 31
0.0
  0
LINE
  5
C4
330
1F
100
AcDbEntity
  8
1
  6
DOT
 62
     7
100
AcDbLine
 10
6.615775218997508
 20
6.561332881151425
 30
0.0
 11
6.740775218997514
 21
6.561332881151425
 31
0.0
  0
LINE
  5
C5
330
1F
100
AcDbEntity
  8
1
  6
DOT
 62
     7
100
AcDbLine
 10
6.615775218997508
 20
7.303832881151423
 30
0.0
 11
6.740775218997515
 21
7.303832881151423
 31
0.0
  0
LINE
  5
C6
330
1F
100
AcDbEntity
  8
1
  6
DOT
 62
     7
100
AcDbLine
 10
6.615775218997508
 20
6.906832881151425
 30
0.0
 11
6.740775218997515
 21
6.906832881151425
 31
0.0
  0
LINE
  5
C7
330
1F
100
AcDbEntity
  8
1
  6
CONTINUOUS
 62
     7
100
AcDbLine
 10
5.0
 20
0.8879283850924522
 30
0.0
 11
8.0
 21
0.8879283850924522
 31
0.0
  0
TEXT
  5
C8
330
1F
100
AcDbEntity
  8
1
  6
CONTINUOUS
 62
     7
100
AcDbText
 10
5.317024264484643
 20
1.037928385092452
 30
0.0
 40
0.2
  1
Gen01 Target Ladder
  7
ARIAL
 72
     1
 11
6.5
 21
1.137928385092452
 31
0.0
100
AcDbText
 73
     2
  0
TEXT
  5
C9
330
1F
100
AcDbEntity
  8
1
  6
CONTINUOUS
 62
     7
100
AcDbText
 10
5.25
 20
0.6754283850924522
 30
0.0
 40
0.15
  1
Rev 2
  7
ARIAL
 11
5.25
 21
0.7504283850924523
 31
0.0
100
AcDbText
 73
     2
  0
TEXT
  5
CA
330
1F
100
AcDbEntity
  8
1
  6
CONTINUOUS
 62
     7
100
AcDbText
 10
5.25
 20
0.4504283850924521
 30
0.0
 40
0.15
  1
02 Mar 2001
  7
ARIAL
 11
5.25
 21
0.5254283850924521
 31
0.0
100
AcDbText
 73
     2
  0
TEXT
  5
CB
330
1F
100
AcDbEntity
  8
1
  6
CONTINUOUS
 62
     7
100
AcDbText
 10
6.5
 20
0.5379283850924523
 30
0.0
 40
0.2
  1
Paul McKee
  7
ARIAL
 11
6.5
 21
0.6379283850924523
 31
0.0
100
AcDbText
 73
     2
  0
LINE
  5
CC
330
1F
100
AcDbEntity
  8
1
  6
DOT
 62
     7
100
AcDbLine
 10
6.615775218997508
 20
2.588832881151423
 30
0.0
 11
6.615775218997508
 21
2.601332881151424
 31
0.0
  0
LINE
  5
CD
330
1F
100
AcDbEntity
  8
1
  6
CONTINUOUS
 62
     7
100
AcDbLine
 10
1.404506127803801
 20
2.326332881151424
 30
0.0
 11
0.9999999999999998
 21
2.326332881151424
 31
0.0
  0
TEXT
  5
CE
330
1F
100
AcDbEntity
  8
1
  6
CONTINUOUS
 62
     7
100
AcDbText
 10
0.440095154568553
 20
2.263832881151424
 30
0.0
 40
0.125
  1
0.000"
  7
ARIAL
 72
     1
 11
0.6640570871531963
 21
2.326332881151424
 31
0.0
100
AcDbText
 73
     2
  0
LINE
  5
CF
330
1F
100
AcDbEntity
  8
1
  6
CONTINUOUS
 62
     7
100
AcDbLine
 10
1.4045061278038
 20
2.661096464022284
 30
0.0
 11
1.0
 21
2.661096464022284
 31
0.0
  0
TEXT
  5
D0
330
1F
100
AcDbEntity
  8
1
  6
CONTINUOUS
 62
     7
100
AcDbText
 10
0.4400951545685531
 20
2.598596464022284
 30
0.0
 40
0.125
  1
0.335"
  7
ARIAL
 72
     1
 11
0.6640570871531964
 21
2.661096464022284
 31
0.0
100
AcDbText
 73
     2
  0
LINE
  5
D1
330
1F
100
AcDbEntity
  8
1
  6
CONTINUOUS
 62
     7
100
AcDbLine
 10
1.4045061278038
 20
3.137332881151424
 30
0.0
 11
1.0
 21
3.137332881151424
 31
0.0
  0
TEXT
  5
D2
330
1F
100
AcDbEntity
  8
1
  6
CONTINUOUS
 62
     7
100
AcDbText
 10
0.4546929057687525
 20
3.074832881151424
 30
0.0
 40
0.125
  1
0.811"
  7
ARIAL
 72
     1
 11
0.6728157401084902
 21
3.137332881151424
 31
0.0
100
AcDbText
 73
     2
  0
LINE
  5
D3
330
1F
100
AcDbEntity
  8
1
  6
CONTINUOUS
 62
     7
100
AcDbLine
 10
1.4045061278038
 20
3.613569298280564
 30
0.0
 11
0.9999999999999998
 21
3.613569298280564
 31
0.0
  0
TEXT
  5
D4
330
1F
100
AcDbEntity
  8
1
  6
CONTINUOUS
 62
     7
100
AcDbText
 10
0.440095154568553
 20
3.551069298280564
 30
0.0
 40
0.125
  1
1.287"
  7
ARIAL
 72
     1
 11
0.6640570871531963
 21
3.613569298280564
 31
0.0
100
AcDbText
 73
     2
  0
LINE
  5
D5
330
1F
100
AcDbEntity
  8
1
  6
CONTINUOUS
 62
     7
100
AcDbLine
 10
1.4045061278038
 20
3.895096464022284
 30
0.0
 11
1.0
 21
3.895096464022284
 31
0.0
  0
TEXT
  5
D6
330
1F
100
AcDbEntity
  8
1
  6
CONTINUOUS
 62
     7
100
AcDbText
 10
0.4400951545685531
 20
3.832596464022284
 30
0.0
 40
0.125
  1
1.569"
  7
ARIAL
 72
     1
 11
0.6640570871531964
 21
3.895096464022284
 31
0.0
100
AcDbText
 73
     2
  0
LINE
  5
D7
330
1F
100
AcDbEntity
  8
1
  6
CONTINUOUS
 62
     7
100
AcDbLine
 10
1.4045061278038
 20
4.371332881151424
 30
0.0
 11
1.0
 21
4.371332881151424
 31
0.0
  0
TEXT
  5
D8
330
1F
100
AcDbEntity
  8
1
  6
CONTINUOUS
 62
     7
100
AcDbText
 10
0.4400951545685534
 20
4.308832881151424
 30
0.0
 40
0.125
  1
2.045"
  7
ARIAL
 72
     1
 11
0.6640570871531966
 21
4.371332881151424
 31
0.0
100
AcDbText
 73
     2
  0
LINE
  5
D9
330
1F
100
AcDbEntity
  8
1
  6
CONTINUOUS
 62
     7
100
AcDbLine
 10
1.4045061278038
 20
4.847569298280564
 30
0.0
 11
0.9999999999999998
 21
4.847569298280564
 31
0.0
  0
TEXT
  5
DA
330
1F
100
AcDbEntity
  8
1
  6
CONTINUOUS
 62
     7
100
AcDbText
 10
0.440095154568553
 20
4.785069298280564
 30
0.0
 40
0.125
  1
2.521"
  7
ARIAL
 72
     1
 11
0.6640570871531963
 21
4.847569298280564
 31
0.0
100
AcDbText
 73
     2
  0
LINE
  5
DB
330
1F
100
AcDbEntity
  8
1
  6
CONTINUOUS
 62
     7
100
AcDbLine
 10
1.4045061278038
 20
5.129096464022284
 30
0.0
 11
0.9999999999999998
 21
5.129096464022284
 31
0.0
  0
TEXT
  5
DC
330
1F
100
AcDbEntity
  8
1
  6
CONTINUOUS
 62
     7
100
AcDbText
 10
0.440095154568553
 20
5.066596464022284
 30
0.0
 40
0.125
  1
2.803"
  7
ARIAL
 72
     1
 11
0.6640570871531963
 21
5.129096464022284
 31
0.0
100
AcDbText
 73
     2
  0
LINE
  5
DD
330
1F
100
AcDbEntity
  8
1
  6
CONTINUOUS
 62
     7
100
AcDbLine
 10
1.4045061278038
 20
5.605332881151424
 30
0.0
 11
1.0
 21
5.605332881151424
 31
0.0
  0
TEXT
  5
DE
330
1F
100
AcDbEntity
  8
1
  6
CONTINUOUS
 62
     7
100
AcDbText
 10
0.4400951545685534
 20
5.542832881151424
 30
0.0
 40
0.125
  1
3.279"
  7
ARIAL
 72
     1
 11
0.6640570871531966
 21
5.605332881151424
 31
0.0
100
AcDbText
 73
     2
  0
LINE
  5
DF
330
1F
100
AcDbEntity
  8
1
  6
CONTINUOUS
 62
     7
100
AcDbLine
 10
1.4045061278038
 20
6.081569298280564
 30
0.0
 11
0.9999999999999998
 21
6.081569298280564
 31
0.0
  0
TEXT
  5
E0
330
1F
100
AcDbEntity
  8
1
  6
CONTINUOUS
 62
     7
100
AcDbText
 10
0.440095154568553
 20
6.019069298280564
 30
0.0
 40
0.125
  1
3.755"
  7
ARIAL
 72
     1
 11
0.6640570871531963
 21
6.081569298280564
 31
0.0
100
AcDbText
 73
     2
  0
LINE
  5
E1
330
1F
100
AcDbEntity
  8
1
  6
CONTINUOUS
 62
     7
100
AcDbLine
 10
1.4045061278038
 20
6.717332881151423
 30
0.0
 11
1.0
 21
6.717332881151423
 31
0.0
  0
TEXT
  5
E2
330
1F
100
AcDbEntity
  8
1
  6
CONTINUOUS
 62
     7
100
AcDbText
 10
0.4400951545685531
 20
6.654832881151423
 30
0.0
 40
0.125
  1
4.391"
  7
ARIAL
 72
     1
 11
0.6640570871531964
 21
6.717332881151423
 31
0.0
100
AcDbText
 73
     2
  0
LINE
  5
E3
330
1F
100
AcDbEntity
  8
1
  6
CONTINUOUS
 62
     7
100
AcDbLine
 10
1.4045061278038
 20
7.105332881151424
 30
0.0
 11
0.9999999999999998
 21
7.105332881151424
 31
0.0
  0
TEXT
  5
E4
330
1F
100
AcDbEntity
  8
1
  6
CONTINUOUS
 62
     7
100
AcDbText
 10
0.440095154568553
 20
7.042832881151424
 30
0.0
 40
0.125
  1
4.779"
  7
ARIAL
 72
     1
 11
0.6640570871531963
 21
7.105332881151424
 31
0.0
100
AcDbText
 73
     2
  0
LINE
  5
E5
330
1F
100
AcDbEntity
  8
1
  6
CONTINUOUS
 62
     7
100
AcDbLine
 10
1.4045061278038
 20
7.441096464022285
 30
0.0
 11
1.0
 21
7.441096464022285
 31
0.0
  0
TEXT
  5
E6
330
1F
100
AcDbEntity
  8
1
  6
CONTINUOUS
 62
     7
100
AcDbText
 10
0.4546929057687522
 20
7.378596464022285
 30
0.0
 40
0.125
  1
5.115"
  7
ARIAL
 72
     1
 11
0.67281574010849
 21
7.441096464022285
 31
0.0
100
AcDbText
 73
     2
  0
LINE
  5
E7
330
1F
100
AcDbEntity
  8
1
  6
CONTINUOUS
 62
     7
100
AcDbLine
 10
1.4045061278038
 20
7.917332881151423
 30
0.0
 11
0.9999999999999998
 21
7.917332881151423
 31
0.0
  0
TEXT
  5
E8
330
1F
100
AcDbEntity
  8
1
  6
CONTINUOUS
 62
     7
100
AcDbText
 10
0.4400951545685529
 20
7.854832881151423
 30
0.0
 40
0.125
  1
5.591"
  7
ARIAL
 72
     1
 11
0.6640570871531962
 21
7.917332881151423
 31
0.0
100
AcDbText
 73
     2
  0
LINE
  5
E9
330
1F
100
AcDbEntity
  8
1
  6
CONTINUOUS
 62
     7
100
AcDbLine
 10
1.4045061278038
 20
8.39356929828056
 30
0.0
 11
0.9999999999999998
 21
8.39356929828056
 31
0.0
  0
TEXT
  5
EA
330
1F
100
AcDbEntity
  8
1
  6
CONTINUOUS
 62
     7
100
AcDbText
 10
0.440095154568553
 20
8.33106929828056
 30
0.0
 40
0.125
  1
6.067"
  7
ARIAL
 72
     1
 11
0.6640570871531963
 21
8.39356929828056
 31
0.0
100
AcDbText
 73
     2
  0
LINE
  5
EB
330
1F
100
AcDbEntity
  8
1
  6
CONTINUOUS
 62
     7
100
AcDbLine
 10
1.4045061278038
 20
8.690332881151419
 30
0.0
 11
1.0
 21
8.690332881151419
 31
0.0
  0
TEXT
  5
EC
330
1F
100
AcDbEntity
  8
1
  6
CONTINUOUS
 62
     7
100
AcDbText
 10
0.4400951545685531
 20
8.627832881151419
 30
0.0
 40
0.125
  1
6.364"
  7
ARIAL
 72
     1
 11
0.6640570871531964
 21
8.690332881151419
 31
0.0
100
AcDbText
 73
     2
  0
LINE
  5
ED
330
1F
100
AcDbEntity
  8
1
  6
CONTINUOUS
 62
     7
100
AcDbLine
 10
1.4045061278038
 20
9.000332881151422
 30
0.0
 11
1.0
 21
9.000332881151422
 31
0.0
  0
TEXT
  5
EE
330
1F
100
AcDbEntity
  8
1
  6
CONTINUOUS
 62
     7
100
AcDbText
 10
0.4400951545685531
 20
8.937832881151422
 30
0.0
 40
0.125
  1
6.674"
  7
ARIAL
 72
     1
 11
0.6640570871531964
 21
9.000332881151422
 31
0.0
100
AcDbText
 73
     2
  0
LINE
  5
EF
330
1F
100
AcDbEntity
  8
1
  6
CONTINUOUS
 62
     7
100
AcDbLine
 10
2.620996758126422
 20
4.602320592385586
 30
0.0
 11
2.961122530908527
 21
4.760242910913956
 31
0.0
  0
LINE
  5
F0
330
1F
100
AcDbEntity
  8
1
  6
CONTINUOUS
 62
     7
100
AcDbLine
 10
2.961122530908527
 20
4.760242910913956
 30
0.0
 11
3.336122530908527
 21
4.760242910913956
 31
0.0
  0
INSERT
  5
F1
330
1F
100
AcDbEntity
  8
1
  6
CONTINUOUS
 62
     7
100
AcDbBlockReference
  2
LONGARROW
 10
2.620996758126422
 20
4.602320592385586
 30
0.0
 41
0.125
 42
0.125
 50
24.90570854714425
  0
TEXT
  5
F2
330
1F
100
AcDbEntity
  8
1
  6
CONTINUOUS
 62
     7
100
AcDbText
 10
3.539561127708497
 20
4.697742910913956
 30
0.0
 40
0.125
  1
4x R 0.549"
  7
ARIAL
 72
     1
 11
3.946438282192888
 21
4.760242910913956
 31
0.0
100
AcDbText
 73
     2
  0
TEXT
  5
F3
330
1F
100
AcDbEntity
  8
1
  6
CONTINUOUS
 62
     7
100
AcDbText
 10
4.664643309475126
 20
4.803992910913956
 30
0.0
 40
0.1
  1
+0.001"
  7
ARIAL
 72
     1
 11
4.880421850295009
 21
4.853992910913956
 31
0.0
100
AcDbText
 73
     2
  0
TEXT
  5
F4
330
1F
100
AcDbEntity
  8
1
  6
CONTINUOUS
 62
     7
100
AcDbText
 10
4.680387256131711
 20
4.616492910913956
 30
0.0
 40
0.1
  1
-0.000"
  7
ARIAL
 72
     1
 11
4.880421850295009
 21
4.666492910913956
 31
0.0
100
AcDbText
 73
     2
  0
LINE
  5
F5
330
1F
100
AcDbEntity
  8
1
  6
CONTINUOUS
 62
     7
100
AcDbLine
 10
1.5295061278038
 20
2.381332881151424
 30
0.0
 11
1.5295061278038
 21
1.576478171073228
 31
0.0
  0
LINE
  5
F6
330
1F
100
AcDbEntity
  8
1
  6
CONTINUOUS
 62
     7
100
AcDbLine
 10
1.712937839116012
 20
2.417944533503106
 30
0.0
 11
2.254218505771862
 21
1.876663866847255
 31
0.0
  0
TEXT
  5
F7
330
1F
100
AcDbEntity
  8
1
  6
CONTINUOUS
 62
     7
100
AcDbText
 10
1.010414721400109
 20
1.767221983256997
 30
0.0
 40
0.125
  1
2x 45°
  7
ARIAL
 72
     1
 11
1.233511600599256
 21
1.829721983256997
 31
0.0
100
AcDbText
 73
     2
  0
ARC
  5
F8
330
1F
100
AcDbEntity
  8
1
  6
CONTINUOUS
 62
     7
100
AcDbCircle
 10
1.5295061278038
 20
2.601376244815318
 30
0.0
 40
0.7748980737420898
100
AcDbArc
 50
268.369094099934
 51
270.0
  0
ARC
  5
F9
330
1F
100
AcDbEntity
  8
1
  6
CONTINUOUS
 62
     7
100
AcDbCircle
 10
1.5295061278038
 20
2.601376244815318
 30
0.0
 40
0.7748980737420898
100
AcDbArc
 50
270.0
 51
314.9999999999999
  0
INSERT
  5
FA
330
1F
100
AcDbEntity
  8
1
  6
CONTINUOUS
 62
     7
100
AcDbBlockReference
  2
LONGARROW
 10
1.529506127803801
 20
1.826478171073228
 30
0.0
 41
0.075
 42
0.075
 50
5.545482185456422
  0
INSERT
  5
FB
330
1F
100
AcDbEntity
  8
1
  6
CONTINUOUS
 62
     7
100
AcDbBlockReference
  2
LONGARROW
 10
2.077441810475225
 20
2.053440562143892
 30
0.0
 41
0.075
 42
0.075
 50
219.4545178145435
  0
TEXT
  5
FC
330
1F
100
AcDbEntity
  8
1
  6
CONTINUOUS
 62
     7
100
AcDbText
 10
3.561488469059836
 20
1.795082881151424
 30
0.0
 40
0.125
  1
2x 0.180"
  7
ARIAL
 72
     1
 11
3.889991921301257
 21
1.857582881151424
 31
0.0
100
AcDbText
 73
     2
  0
LINE
  5
FD
330
1F
100
AcDbEntity
  8
1
  6
CONTINUOUS
 62
     7
100
AcDbLine
 10
2.842506127803793
 20
2.506332881151424
 30
0.0
 11
4.139991921301256
 21
2.506332881151424
 31
0.0
  0
LINE
  5
FE
330
1F
100
AcDbEntity
  8
1
  6
CONTINUOUS
 62
     7
100
AcDbLine
 10
2.842506127803793
 20
2.326332881151424
 30
0.0
 11
4.139991921301256
 21
2.326332881151424
 31
0.0
  0
LINE
  5
FF
330
1F
100
AcDbEntity
  8
1
  6
CONTINUOUS
 62
     7
100
AcDbLine
 10
3.889991921301256
 20
2.506332881151424
 30
0.0
 11
3.889991921301256
 21
2.881332881151424
 31
0.0
  0
LINE
  5
100
330
1F
100
AcDbEntity
  8
1
  6
CONTINUOUS
 62
     7
100
AcDbLine
 10
3.889991921301256
 20
2.326332881151424
 30
0.0
 11
3.889991921301257
 21
1.951332881151424
 31
0.0
  0
INSERT
  5
101
330
1F
100
AcDbEntity
  8
1
  6
CONTINUOUS
 62
     7
100
AcDbBlockReference
  2
LONGARROW
 10
3.889991921301256
 20
2.506332881151424
 30
0.0
 41
0.125
 42
0.125
 50
90.00000000000007
  0
INSERT
  5
102
330
1F
100
AcDbEntity
  8
1
  6
CONTINUOUS
 62
     7
100
AcDbBlockReference
  2
LONGARROW
 10
3.889991921301256
 20
2.326332881151424
 30
0.0
 41
0.125
 42
0.125
 50
270.0
  0
TEXT
  5
103
330
1F
100
AcDbEntity
  8
1
  6
CONTINUOUS
 62
     7
100
AcDbText
 10
6.145026963674744
 20
1.9375
 30
0.0
 40
0.125
  1
2x 0.090"
  7
ARIAL
 72
     1
 11
6.473530415916164
 21
2.0
 31
0.0
100
AcDbText
 73
     2
  0
LINE
  5
104
330
1F
100
AcDbEntity
  8
1
  6
CONTINUOUS
 62
     7
100
AcDbLine
 10
5.515775218997514
 20
2.201293065423665
 30
0.0
 11
5.515775218997514
 21
1.75
 31
0.0
  0
LINE
  5
105
330
1F
100
AcDbEntity
  8
1
  6
CONTINUOUS
 62
     7
100
AcDbLine
 10
5.605775218927582
 20
2.201293065423665
 30
0.0
 11
5.605775218927582
 21
1.75
 31
0.0
  0
LINE
  5
106
330
1F
100
AcDbEntity
  8
1
  6
CONTINUOUS
 62
     7
100
AcDbLine
 10
5.515775218997514
 20
2.0
 30
0.0
 11
5.140775218997514
 21
2.0
 31
0.0
  0
LINE
  5
107
330
1F
100
AcDbEntity
  8
1
  6
CONTINUOUS
 62
     7
100
AcDbLine
 10
5.605775218927582
 20
2.0
 30
0.0
 11
5.980775218927582
 21
2.0
 31
0.0
  0
INSERT
  5
108
330
1F
100
AcDbEntity
  8
1
  6
CONTINUOUS
 62
     7
100
AcDbBlockReference
  2
LONGARROW
 10
5.515775218997514
 20
2.0
 30
0.0
 41
0.125
 42
0.125
 50
180.0
  0
INSERT
  5
109
330
1F
100
AcDbEntity
  8
1
  6
CONTINUOUS
 62
     7
100
AcDbBlockReference
  2
LONGARROW
 10
5.605775218927582
 20
2.0
 30
0.0
 41
0.125
 42
0.125
  0
LINE
  5
10A
330
1F
100
AcDbEntity
  8
1
  6
CONTINUOUS
 62
     7
100
AcDbLine
 10
5.515775218997514
 20
2.726332881151424
 30
0.0
 11
5.515775218997514
 21
3.352723270700164
 31
0.0
  0
LINE
  5
10B
330
1F
100
AcDbEntity
  8
1
  6
CONTINUOUS
 62
     7
100
AcDbLine
 10
5.427385129165185
 20
2.504676122917497
 30
0.0
 11
4.853603510449594
 21
3.078435122739598
 31
0.0
  0
TEXT
  5
10C
330
1F
100
AcDbEntity
  8
1
  6
CONTINUOUS
 62
     7
100
AcDbText
 10
4.649224781002483
 20
2.665380269762839
 30
0.0
 40
0.125
  1
2x 45°
  7
ARIAL
 72
     1
 11
4.87232166020163
 21
2.727880269762839
 31
0.0
100
AcDbText
 73
     2
  0
ARC
  5
10D
330
1F
100
AcDbEntity
  8
1
  6
CONTINUOUS
 62
     7
100
AcDbCircle
 10
5.515775218997514
 20
2.41628951748753
 30
0.0
 40
0.6864337532126337
100
AcDbArc
 50
90.00000000000005
 51
135.0011293431475
  0
ARC
  5
10E
330
1F
100
AcDbEntity
  8
1
  6
CONTINUOUS
 62
     7
100
AcDbCircle
 10
5.515775218997514
 20
2.41628951748753
 30
0.0
 40
0.6864337532126337
100
AcDbArc
 50
135.0011293431475
 51
145.4671227981357
  0
INSERT
  5
10F
330
1F
100
AcDbEntity
  8
1
  6
CONTINUOUS
 62
     7
100
AcDbBlockReference
  2
LONGARROW
 10
5.515775218997513
 20
3.102723270700164
 30
0.0
 41
0.075
 42
0.075
 50
186.260157580203
  0
INSERT
  5
110
330
1F
100
AcDbEntity
  8
1
  6
CONTINUOUS
 62
     7
100
AcDbBlockReference
  2
LONGARROW
 10
5.030383690114253
 20
2.901661911879664
 30
0.0
 41
0.075
 42
0.075
 50
38.7409717629446
  0
TEXT
  5
111
330
1F
100
AcDbEntity
  8
1
  6
CONTINUOUS
 62
     7
100
AcDbText
 10
5.843475536951016
 20
3.362818729744464
 30
0.0
 40
0.125
  1
1.100"
  7
ARIAL
 72
     1
 11
6.06743746953566
 21
3.425318729744464
 31
0.0
100
AcDbText
 73
     2
  0
LINE
  5
112
330
1F
100
AcDbEntity
  8
1
  6
CONTINUOUS
 62
     7
100
AcDbLine
 10
5.515775218997514
 20
2.726332881151424
 30
0.0
 11
5.515775218997514
 21
3.851332881151423
 31
0.0
  0
LINE
  5
113
330
1F
100
AcDbEntity
  8
1
  6
CONTINUOUS
 62
     7
100
AcDbLine
 10
6.615775218997508
 20
2.726332881151424
 30
0.0
 11
6.615775218997508
 21
3.851332881151423
 31
0.0
  0
LINE
  5
114
330
1F
100
AcDbEntity
  8
1
  6
CONTINUOUS
 62
     7
100
AcDbLine
 10
5.515775218997514
 20
3.601332881151423
 30
0.0
 11
6.615775218997508
 21
3.601332881151423
 31
0.0
  0
INSERT
  5
115
330
1F
100
AcDbEntity
  8
1
  6
CONTINUOUS
 62
     7
100
AcDbBlockReference
  2
LONGARROW
 10
5.515775218997514
 20
3.601332881151423
 30
0.0
 41
0.125
 42
0.125
  0
INSERT
  5
116
330
1F
100
AcDbEntity
  8
1
  6
CONTINUOUS
 62
     7
100
AcDbBlockReference
  2
LONGARROW
 10
6.615775218997508
 20
3.601332881151423
 30
0.0
 41
0.125
 42
0.125
 50
180.0
  0
TEXT
  5
117
330
1F
100
AcDbEntity
  8
1
  6
CONTINUOUS
 62
     7
100
AcDbText
 10
3.256757872550955
 20
1.263832881151424
 30
0.0
 40
0.125
  1
2x 0.095"
  7
ARIAL
 72
     1
 11
3.585261324792376
 21
1.326332881151424
 31
0.0
100
AcDbText
 73
     2
  0
LINE
  5
118
330
1F
100
AcDbEntity
  8
1
  6
CONTINUOUS
 62
     7
100
AcDbLine
 10
2.6224627641399
 20
2.201332881151424
 30
0.0
 11
2.6224627641399
 21
1.076332881151424
 31
0.0
  0
LINE
  5
119
330
1F
100
AcDbEntity
  8
1
  6
CONTINUOUS
 62
     7
100
AcDbLine
 10
2.717506127803793
 20
2.201332881151424
 30
0.0
 11
2.717506127803793
 21
1.076332881151424
 31
0.0
  0
LINE
  5
11A
330
1F
100
AcDbEntity
  8
1
  6
CONTINUOUS
 62
     7
100
AcDbLine
 10
2.6224627641399
 20
1.326332881151424
 30
0.0
 11
2.2474627641399
 21
1.326332881151424
 31
0.0
  0
LINE
  5
11B
330
1F
100
AcDbEntity
  8
1
  6
CONTINUOUS
 62
     7
100
AcDbLine
 10
2.717506127803793
 20
1.326332881151424
 30
0.0
 11
3.092506127803793
 21
1.326332881151424
 31
0.0
  0
INSERT
  5
11C
330
1F
100
AcDbEntity
  8
1
  6
CONTINUOUS
 62
     7
100
AcDbBlockReference
  2
LONGARROW
 10
2.6224627641399
 20
1.326332881151424
 30
0.0
 41
0.125
 42
0.125
 50
180.0
  0
INSERT
  5
11D
330
1F
100
AcDbEntity
  8
1
  6
CONTINUOUS
 62
     7
100
AcDbBlockReference
  2
LONGARROW
 10
2.717506127803793
 20
1.326332881151424
 30
0.0
 41
0.125
 42
0.125
  0
INSERT
  5
11E
330
1F
100
AcDbEntity
  8
1
  6
CENTER
 62
     7
100
AcDbBlockReference
  2
LONGARROW
 10
6.705591218727213
 20
7.138541858232432
 30
0.0
 41
0.125
 42
0.125
 50
20.73581078026473
  0
LWPOLYLINE
  5
11F
330
1F
100
AcDbEntity
  8
1
  6
CONTINUOUS
 62
     7
100
AcDbPolyline
 90
        3
 70
     0
 43
0.0
 10
6.705591218727213
 20
7.138541858232432
 10
7.0
 20
7.25
 10
7.375
 20
7.25
  0
TEXT
  5
120
330
1F
100
AcDbEntity
  8
1
  6
CENTER
 62
     7
100
AcDbText
 10
7.5
 20
7.1875
 30
0.0
 40
0.125
  1
#2-56 NC
  7
ARIAL
 11
7.5
 21
7.25
 31
0.0
100
AcDbText
 73
     2
  0
TEXT
  5
121
330
1F
100
AcDbEntity
  8
1
  6
CONTINUOUS
 62
     7
100
AcDbText
 10
4.776038067415355
 20
9.406582881151424
 30
0.0
 40
0.125
  1
0.170"
  7
ARIAL
 72
     1
 11
4.999999999999999
 21
9.469082881151424
 31
0.0
100
AcDbText
 73
     2
  0
LINE
  5
122
330
1F
100
AcDbEntity
  8
1
  6
CONTINUOUS
 62
     7
100
AcDbLine
 10
6.353775218997507
 20
8.830332881151424
 30
0.0
 11
4.75
 21
8.830332881151424
 31
0.0
  0
LINE
  5
123
330
1F
100
AcDbEntity
  8
1
  6
CONTINUOUS
 62
     7
100
AcDbLine
 10
6.353775218997507
 20
9.000332881151424
 30
0.0
 11
4.75
 21
9.000332881151424
 31
0.0
  0
LINE
  5
124
330
1F
100
AcDbEntity
  8
1
  6
CONTINUOUS
 62
     7
100
AcDbLine
 10
5.0
 20
8.830332881151424
 30
0.0
 11
5.0
 21
8.455332881151424
 31
0.0
  0
LINE
  5
125
330
1F
100
AcDbEntity
  8
1
  6
CONTINUOUS
 62
     7
100
AcDbLine
 10
5.0
 20
9.000332881151424
 30
0.0
 11
5.0
 21
9.375332881151424
 31
0.0
  0
INSERT
  5
126
330
1F
100
AcDbEntity
  8
1
  6
CONTINUOUS
 62
     7
100
AcDbBlockReference
  2
LONGARROW
 10
5.0
 20
8.830332881151424
 30
0.0
 41
0.125
 42
0.125
 50
270.0
  0
INSERT
  5
127
330
1F
100
AcDbEntity
  8
1
  6
CONTINUOUS
 62
     7
100
AcDbBlockReference
  2
LONGARROW
 10
5.0
 20
9.000332881151424
 30
0.0
 41
0.125
 42
0.125
 50
90.00000000000005
  0
TEXT
  5
128
330
1F
100
AcDbEntity
  8
1
  6
CONTINUOUS
 62
     7
100
AcDbText
 10
7.626813286412872
 20
9.406438036642969
 30
0.0
 40
0.125
  1
0.120"
  7
ARIAL
 72
     1
 11
7.850775218997515
 21
9.468938036642969
 31
0.0
100
AcDbText
 73
     2
  0
LINE
  5
129
330
1F
100
AcDbEntity
  8
1
  6
CONTINUOUS
 62
     7
100
AcDbLine
 10
6.975775218997515
 20
8.88
 30
0.0
 11
8.100775218997515
 21
8.88
 31
0.0
  0
LINE
  5
12A
330
1F
100
AcDbEntity
  8
1
  6
CONTINUOUS
 62
     7
100
AcDbLine
 10
6.975775218997515
 20
9.000188036642969
 30
0.0
 11
8.100775218997515
 21
9.000188036642969
 31
0.0
  0
LINE
  5
12B
330
1F
100
AcDbEntity
  8
1
  6
CONTINUOUS
 62
     7
100
AcDbLine
 10
7.850775218997515
 20
8.88
 30
0.0
 11
7.850775218997515
 21
8.505
 31
0.0
  0
LINE
  5
12C
330
1F
100
AcDbEntity
  8
1
  6
CONTINUOUS
 62
     7
100
AcDbLine
 10
7.850775218997515
 20
9.000188036642969
 30
0.0
 11
7.850775218997515
 21
9.375188036642969
 31
0.0
  0
INSERT
  5
12D
330
1F
100
AcDbEntity
  8
1
  6
CONTINUOUS
 62
     7
100
AcDbBlockReference
  2
LONGARROW
 10
7.850775218997515
 20
8.88
 30
0.0
 41
0.125
 42
0.125
 50
270.0
  0
INSERT
  5
12E
330
1F
100
AcDbEntity
  8
1
  6
CONTINUOUS
 62
     7
100
AcDbBlockReference
  2
LONGARROW
 10
7.850775218997515
 20
9.000188036642969
 30
0.0
 41
0.125
 42
0.125
 50
90.00000000000005
  0
TEXT
  5
12F
330
1F
100
AcDbEntity
  8
1
  6
CONTINUOUS
 62
     7
100
AcDbText
 10
7.169756199259668
 20
9.937832881151424
 30
0.0
 40
0.125
  1
0.204"
  7
ARIAL
 72
     1
 11
7.393718131844312
 21
10.00033288115142
 31
0.0
100
AcDbText
 73
     2
  0
LINE
  5
130
330
1F
100
AcDbEntity
  8
1
  6
CONTINUOUS
 62
     7
100
AcDbLine
 10
6.682775218997508
 20
8.815332881151423
 30
0.0
 11
6.682775218997508
 21
10.25033288115142
 31
0.0
  0
LINE
  5
131
330
1F
100
AcDbEntity
  8
1
  6
CONTINUOUS
 62
     7
100
AcDbLine
 10
6.478775218997507
 20
10.00033288115142
 30
0.0
 11
6.103775218997507
 21
10.00033288115142
 31
0.0
  0
LINE
  5
132
330
1F
100
AcDbEntity
  8
1
  6
CONTINUOUS
 62
     7
100
AcDbLine
 10
6.682775218997508
 20
10.00033288115142
 30
0.0
 11
7.057775218997508
 21
10.00033288115142
 31
0.0
  0
INSERT
  5
133
330
1F
100
AcDbEntity
  8
1
  6
CONTINUOUS
 62
     7
100
AcDbBlockReference
  2
LONGARROW
 10
6.478775218997507
 20
10.00033288115142
 30
0.0
 41
0.125
 42
0.125
 50
180.0
  0
INSERT
  5
134
330
1F
100
AcDbEntity
  8
1
  6
CONTINUOUS
 62
     7
100
AcDbBlockReference
  2
LONGARROW
 10
6.682775218997508
 20
10.00033288115142
 30
0.0
 41
0.125
 42
0.125
  0
TEXT
  5
135
330
1F
100
AcDbEntity
  8
1
  6
CONTINUOUS
 62
     7
100
AcDbText
 10
7.337756199259676
 20
10.31283288115142
 30
0.0
 40
0.125
  1
0.372"
  7
ARIAL
 72
     1
 11
7.561718131844319
 21
10.37533288115142
 31
0.0
100
AcDbText
 73
     2
  0
LINE
  5
136
330
1F
100
AcDbEntity
  8
1
  6
CONTINUOUS
 62
     7
100
AcDbLine
 10
6.478775218997507
 20
9.125332881151424
 30
0.0
 11
6.478775218997507
 21
10.62533288115142
 31
0.0
  0
LINE
  5
137
330
1F
100
AcDbEntity
  8
1
  6
CONTINUOUS
 62
     7
100
AcDbLine
 10
6.850775218997515
 20
9.125188036642969
 30
0.0
 11
6.850775218997515
 21
10.62533288115142
 31
0.0
  0
LINE
  5
138
330
1F
100
AcDbEntity
  8
1
  6
CONTINUOUS
 62
     7
100
AcDbLine
 10
6.478775218997507
 20
10.37533288115142
 30
0.0
 11
6.103775218997507
 21
10.37533288115142
 31
0.0
  0
LINE
  5
139
330
1F
100
AcDbEntity
  8
1
  6
CONTINUOUS
 62
     7
100
AcDbLine
 10
6.850775218997515
 20
10.37533288115142
 30
0.0
 11
7.225775218997515
 21
10.37533288115142
 31
0.0
  0
INSERT
  5
13A
330
1F
100
AcDbEntity
  8
1
  6
CONTINUOUS
 62
     7
100
AcDbBlockReference
  2
LONGARROW
 10
6.478775218997507
 20
10.37533288115142
 30
0.0
 41
0.125
 42
0.125
 50
180.0
  0
INSERT
  5
13B
330
1F
100
AcDbEntity
  8
1
  6
CONTINUOUS
 62
     7
100
AcDbBlockReference
  2
LONGARROW
 10
6.850775218997515
 20
10.37533288115142
 30
0.0
 41
0.125
 42
0.125
  0
TEXT
  5
13C
330
1F
100
AcDbEntity
  8
1
  6
CONTINUOUS
 62
     7
100
AcDbText
 10
5.603745582388297
 20
7.680161999949166
 30
0.0
 40
0.125
  1
0.137"
  7
ARIAL
 72
     1
 11
5.82770751497294
 21
7.742661999949166
 31
0.0
100
AcDbText
 73
     2
  0
LINE
  5
13D
330
1F
100
AcDbEntity
  8
1
  6
CONTINUOUS
 62
     7
100
AcDbLine
 10
6.478775218997507
 20
8.705332881151424
 30
0.0
 11
6.478775218997507
 21
7.492661999949166
 31
0.0
  0
LINE
  5
13E
330
1F
100
AcDbEntity
  8
1
  6
CONTINUOUS
 62
     7
100
AcDbLine
 10
6.615775218997508
 20
8.705332881151424
 30
0.0
 11
6.615775218997508
 21
7.492661999949166
 31
0.0
  0
LINE
  5
13F
330
1F
100
AcDbEntity
  8
1
  6
CONTINUOUS
 62
     7
100
AcDbLine
 10
6.478775218997507
 20
7.742661999949166
 30
0.0
 11
6.103775218997507
 21
7.742661999949166
 31
0.0
  0
LINE
  5
140
330
1F
100
AcDbEntity
  8
1
  6
CONTINUOUS
 62
     7
100
AcDbLine
 10
6.615775218997508
 20
7.742661999949166
 30
0.0
 11
6.990775218997508
 21
7.742661999949166
 31
0.0
  0
INSERT
  5
141
330
1F
100
AcDbEntity
  8
1
  6
CONTINUOUS
 62
     7
100
AcDbBlockReference
  2
LONGARROW
 10
6.478775218997507
 20
7.742661999949166
 30
0.0
 41
0.125
 42
0.125
 50
180.0
  0
INSERT
  5
142
330
1F
100
AcDbEntity
  8
1
  6
CONTINUOUS
 62
     7
100
AcDbBlockReference
  2
LONGARROW
 10
6.615775218997508
 20
7.742661999949166
 30
0.0
 41
0.125
 42
0.125
  0
TEXT
  5
143
330
1F
100
AcDbEntity
  8
1
  6
CONTINUOUS
 62
     7
100
AcDbText
 10
7.227756199259674
 20
5.9375
 30
0.0
 40
0.125
  1
0.125"
  7
ARIAL
 72
     1
 11
7.451718131844318
 21
6.0
 31
0.0
100
AcDbText
 73
     2
  0
LINE
  5
144
330
1F
100
AcDbEntity
  8
1
  6
CONTINUOUS
 62
     7
100
AcDbLine
 10
6.615775218997508
 20
5.840832881151424
 30
0.0
 11
6.615775218997508
 21
6.25
 31
0.0
  0
LINE
  5
145
330
1F
100
AcDbEntity
  8
1
  6
CONTINUOUS
 62
     7
100
AcDbLine
 10
6.740775218997514
 20
5.840832881151424
 30
0.0
 11
6.740775218997514
 21
6.25
 31
0.0
  0
LINE
  5
146
330
1F
100
AcDbEntity
  8
1
  6
CONTINUOUS
 62
     7
100
AcDbLine
 10
6.615775218997508
 20
6.0
 30
0.0
 11
6.240775218997508
 21
6.0
 31
0.0
  0
LINE
  5
147
330
1F
100
AcDbEntity
  8
1
  6
CONTINUOUS
 62
     7
100
AcDbLine
 10
6.740775218997514
 20
6.0
 30
0.0
 11
7.115775218997514
 21
6.0
 31
0.0
  0
INSERT
  5
148
330
1F
100
AcDbEntity
  8
1
  6
CONTINUOUS
 62
     7
100
AcDbBlockReference
  2
LONGARROW
 10
6.615775218997508
 20
6.0
 30
0.0
 41
0.125
 42
0.125
 50
180.0
  0
INSERT
  5
149
330
1F
100
AcDbEntity
  8
1
  6
CONTINUOUS
 62
     7
100
AcDbBlockReference
  2
LONGARROW
 10
6.740775218997514
 20
6.0
 30
0.0
 41
0.125
 42
0.125
  0
LINE
  5
14A
330
1F
100
AcDbEntity
  8
1
  6
CONTINUOUS
 62
     7
100
AcDbLine
 10
6.913487024317862
 20
8.98813061302639
 30
0.0
 11
7.224062332420321
 21
9.523639011874598
 31
0.0
  0
TEXT
  5
14B
330
1F
100
AcDbEntity
  8
1
  6
CONTINUOUS
 62
     7
100
AcDbText
 10
7.267444446055175
 20
8.442540413829773
 30
0.0
 40
0.125
  1
150°
  7
ARIAL
 72
     1
 11
7.429598420230628
 21
8.505040413829773
 31
0.0
100
AcDbText
 73
     2
  0
ARC
  5
14C
330
1F
100
AcDbEntity
  8
1
  6
CONTINUOUS
 62
     7
100
AcDbCircle
 10
6.740775218997515
 20
8.690332881151423
 30
0.0
 40
0.713309680996395
100
AcDbArc
 50
270.0
 51
337.1458642887878
  0
ARC
  5
14D
330
1F
100
AcDbEntity
  8
1
  6
CONTINUOUS
 62
     7
100
AcDbCircle
 10
6.740775218997515
 20
8.690332881151423
 30
0.0
 40
0.713309680996395
100
AcDbArc
 50
352.7419688326986
 51
59.88783312148652
  0
INSERT
  5
14E
330
1F
100
AcDbEntity
  8
1
  6
CONTINUOUS
 62
     7
100
AcDbBlockReference
  2
LONGARROW
 10
6.740775218997516
 20
7.977023200155028
 30
0.0
 41
0.125
 42
0.125
 50
10.04048119623313
  0
INSERT
  5
14F
330
1F
100
AcDbEntity
  8
1
  6
CONTINUOUS
 62
     7
100
AcDbBlockReference
  2
LONGARROW
 10
7.098638721779629
 20
9.307377785821817
 30
0.0
 41
0.125
 42
0.125
 50
319.8473519252534
  0
INSERT
  5
150
330
1F
100
AcDbEntity
  8
1
  6
CONTINUOUS
 62
     7
100
AcDbBlockReference
  2
LONGARROW
 10
2.498506127803793
 20
8.690332881151419
 30
0.0
 41
0.125
 42
0.125
 50
318.7154956601002
  0
LWPOLYLINE
  5
151
330
1F
100
AcDbEntity
  8
1
  6
CONTINUOUS
 62
     7
100
AcDbPolyline
 90
        3
 70
     0
 43
0.0
 10
2.498506127803793
 20
8.690332881151419
 10
3.0
 20
8.25
 10
3.375
 20
8.25
  0
TEXT
  5
152
330
1F
100
AcDbEntity
  8
1
  6
CONTINUOUS
 62
     7
100
AcDbText
 10
3.5
 20
8.1875
 30
0.0
 40
0.125
  1
2x #2-56 NC
  7
ARIAL
 11
3.5
 21
8.25
 31
0.0
100
AcDbText
 73
     2
  0
TEXT
  5
153
330
1F
100
AcDbEntity
  8
1
  6
CONTINUOUS
 62
     7
100
AcDbText
 10
5.0
 20
1.425
 30
0.0
 40
0.15
  1
MATL: ALUM 6061
  7
ARIAL
 11
5.0
 21
1.5
 31
0.0
100
AcDbText
 73
     2
  0
ENDSEC
  0
SECTION
  2
OBJECTS
  0
DICTIONARY
  5
C
330
0
100
AcDbDictionary
  3
ACAD_GROUP
350
D
  3
ACAD_PLOTSTYLENAME
350
E
  3
ACAD_MLINESTYLE
350
17
  3
ACAD_PLOTSETTINGS
350
19
  3
ACAD_LAYOUT
350
1A
  3
ACDBHEADERROUNDTRIPXREC
350
154
  0
DICTIONARY
  5
177
330
1F
100
AcDbDictionary
280
     1
  3
ACAD_LAYOUTSELFREF
360
178
  0
DICTIONARY
  5
175
330
1B
100
AcDbDictionary
280
     1
  3
ACAD_LAYOUTSELFREF
360
176
  0
DICTIONARY
  5
D
102
{ACAD_REACTORS
330
C
102
}
330
C
100
AcDbDictionary
  0
ACDBDICTIONARYWDFLT
  5
E
102
{ACAD_REACTORS
330
C
102
}
330
C
100
AcDbDictionary
281
     1
  3
Normal
350
F
100
AcDbDictionaryWithDefault
340
F
  0
DICTIONARY
  5
17
102
{ACAD_REACTORS
330
C
102
}
330
C
100
AcDbDictionary
  3
STANDARD
350
18
  0
DICTIONARY
  5
19
102
{ACAD_REACTORS
330
C
102
}
330
C
100
AcDbDictionary
  0
DICTIONARY
  5
1A
102
{ACAD_REACTORS
330
C
102
}
330
C
100
AcDbDictionary
  0
DICTIONARY
  5
154
102
{ACAD_REACTORS
330
C
102
}
330
C
100
AcDbDictionary
  3
TSTACKALIGN
350
155
  3
TSTACKSIZE
350
156
  3
HYPERLINKBASE
350
157
  3
STYLESHEET
350
158
  3
LAYOUTDICT
350
159
  3
PLOTSETDICT
350
15A
  3
PLOTSTYLNAMDICT
350
15B
  3
LWETCUNION
350
15C
  3
INSUNITS
350
15D
  3
CEPSNTYPE
350
15E
  3
FINGERPRINTGUID
350
15F
  3
VERSIONGUID
350
160
  3
PSVPSCALE
350
161
  3
DIMSTYLEDATA
350
162
  3
PUCSORTHOREF
350
163
  3
PUCSORTHOVIEW
350
164
  3
PUCSBASE
350
165
  3
PUCSORGTOP
350
166
  3
PUCSORGBOTTOM
350
167
  3
PUCSORGLEFT
350
168
  3
PUCSORGRIGHT
350
169
  3
PUCSORGFRONT
350
16A
  3
PUCSORGBACK
350
16B
  3
UCSORTHOREF
350
16C
  3
UCSORTHOVIEW
350
16D
  3
UCSBASE
350
16E
  3
UCSORGTOP
350
16F
  3
UCSORGBOTTOM
350
170
  3
UCSORGLEFT
350
171
  3
UCSORGRIGHT
350
172
  3
UCSORGFRONT
350
173
  3
UCSORGBACK
350
174
  0
XRECORD
  5
178
102
{ACAD_REACTORS
330
177
102
}
330
177
100
AcDbXrecord
340
1F
  0
XRECORD
  5
176
102
{ACAD_REACTORS
330
175
102
}
330
175
100
AcDbXrecord
340
1B
  0
ACDBPLACEHOLDER
  5
F
102
{ACAD_REACTORS
330
E
102
}
330
E
100
AcDbPlaceHolder
280
     0
  0
MLINESTYLE
  5
18
102
{ACAD_REACTORS
330
17
102
}
330
17
100
AcDbMlineStyle
  2
STANDARD
 70
     0
  3

 62
   256
 51
90.0
 52
90.0
 71
     2
 49
0.5
 62
   256
  6
BYLAYER
 49
-0.5
 62
   256
  6
BYLAYER
  0
XRECORD
  5
155
102
{ACAD_REACTORS
330
154
102
}
330
154
100
AcDbXrecord
 90
        1
  0
XRECORD
  5
156
102
{ACAD_REACTORS
330
154
102
}
330
154
100
AcDbXrecord
 90
       70
  0
XRECORD
  5
157
102
{ACAD_REACTORS
330
154
102
}
330
154
100
AcDbXrecord
  1

  0
XRECORD
  5
158
102
{ACAD_REACTORS
330
154
102
}
330
154
100
AcDbXrecord
  1

  0
XRECORD
  5
159
102
{ACAD_REACTORS
330
154
102
}
330
154
100
AcDbXrecord
340
1A
  0
XRECORD
  5
15A
102
{ACAD_REACTORS
330
154
102
}
330
154
100
AcDbXrecord
340
19
  0
XRECORD
  5
15B
102
{ACAD_REACTORS
330
154
102
}
330
154
100
AcDbXrecord
340
E
  0
XRECORD
  5
15C
102
{ACAD_REACTORS
330
154
102
}
330
154
100
AcDbXrecord
 90
    10781
  0
XRECORD
  5
15D
102
{ACAD_REACTORS
330
154
102
}
330
154
100
AcDbXrecord
 90
        0
  0
XRECORD
  5
15E
102
{ACAD_REACTORS
330
154
102
}
330
154
100
AcDbXrecord
 90
        0
  0
XRECORD
  5
15F
102
{ACAD_REACTORS
330
154
102
}
330
154
100
AcDbXrecord
  1
{BFE466A5-C2A6-4D8A-AB61-7624C631C826}
  0
XRECORD
  5
160
102
{ACAD_REACTORS
330
154
102
}
330
154
100
AcDbXrecord
  1
{2F7FA39D-ABCF-4E5F-BF89-4A1DEC7E4F80}
  0
XRECORD
  5
161
102
{ACAD_REACTORS
330
154
102
}
330
154
100
AcDbXrecord
 40
0.0
  0
XRECORD
  5
162
102
{ACAD_REACTORS
330
154
102
}
330
154
100
AcDbXrecord
1000
DSTYLE
1002
{
1070
   277
 70
     4
1002
}
  0
XRECORD
  5
163
102
{ACAD_REACTORS
330
154
102
}
330
154
100
AcDbXrecord
340
0
  0
XRECORD
  5
164
102
{ACAD_REACTORS
330
154
102
}
330
154
100
AcDbXrecord
 70
     0
  0
XRECORD
  5
165
102
{ACAD_REACTORS
330
154
102
}
330
154
100
AcDbXrecord
340
0
  0
XRECORD
  5
166
102
{ACAD_REACTORS
330
154
102
}
330
154
100
AcDbXrecord
 10
0.0
 20
0.0
 30
0.0
  0
XRECORD
  5
167
102
{ACAD_REACTORS
330
154
102
}
330
154
100
AcDbXrecord
 10
0.0
 20
0.0
 30
0.0
  0
XRECORD
  5
168
102
{ACAD_REACTORS
330
154
102
}
330
154
100
AcDbXrecord
 10
0.0
 20
0.0
 30
0.0
  0
XRECORD
  5
169
102
{ACAD_REACTORS
330
154
102
}
330
154
100
AcDbXrecord
 10
0.0
 20
0.0
 30
0.0
  0
XRECORD
  5
16A
102
{ACAD_REACTORS
330
154
102
}
330
154
100
AcDbXrecord
 10
0.0
 20
0.0
 30
0.0
  0
XRECORD
  5
16B
102
{ACAD_REACTORS
330
154
102
}
330
154
100
AcDbXrecord
 10
0.0
 20
0.0
 30
0.0
  0
XRECORD
  5
16C
102
{ACAD_REACTORS
330
154
102
}
330
154
100
AcDbXrecord
340
0
  0
XRECORD
  5
16D
102
{ACAD_REACTORS
330
154
102
}
330
154
100
AcDbXrecord
 70
     0
  0
XRECORD
  5
16E
102
{ACAD_REACTORS
330
154
102
}
330
154
100
AcDbXrecord
340
0
  0
XRECORD
  5
16F
102
{ACAD_REACTORS
330
154
102
}
330
154
100
AcDbXrecord
 10
0.0
 20
0.0
 30
0.0
  0
XRECORD
  5
170
102
{ACAD_REACTORS
330
154
102
}
330
154
100
AcDbXrecord
 10
0.0
 20
0.0
 30
0.0
  0
XRECORD
  5
171
102
{ACAD_REACTORS
330
154
102
}
330
154
100
AcDbXrecord
 10
0.0
 20
0.0
 30
0.0
  0
XRECORD
  5
172
102
{ACAD_REACTORS
330
154
102
}
330
154
100
AcDbXrecord
 10
0.0
 20
0.0
 30
0.0
  0
XRECORD
  5
173
102
{ACAD_REACTORS
330
154
102
}
330
154
100
AcDbXrecord
 10
0.0
 20
0.0
 30
0.0
  0
XRECORD
  5
174
102
{ACAD_REACTORS
330
154
102
}
330
154
100
AcDbXrecord
 10
0.0
 20
0.0
 30
0.0
  0
ENDSEC
  0
EOF
