  0
SECTION
  2
HEADER
  9
$ACADVER
  1
AC1014
  9
$ACADMAINTVER
 70
     6
  9
$DWGCODEPAGE
  3
ANSI_1252
  9
$INSBASE
 10
0.0
 20
0.0
 30
0.0
  9
$EXTMIN
 10
-1.750000000000001
 20
-1.75
 30
-0.00000001
  9
$EXTMAX
 10
1.999999999999999
 20
3.282957527159641
 30
0.00000001
  9
$LIMMIN
 10
-2.093582341744478
 20
-2.065932803446436
  9
$LIMMAX
 10
2.158084324922187
 20
3.43573386322023
  9
$ORTHOMODE
 70
     0
  9
$REGENMODE
 70
     1
  9
$FILLMODE
 70
     1
  9
$QTEXTMODE
 70
     0
  9
$MIRRTEXT
 70
     1
  9
$DRAGMODE
 70
     2
  9
$LTSCALE
 40
1.0
  9
$OSMODE
 70
     0
  9
$ATTMODE
 70
     1
  9
$TEXTSIZE
 40
0.1
  9
$TRACEWID
 40
0.05
  9
$TEXTSTYLE
  7
STANDARD
  9
$CLAYER
  8
0
  9
$CELTYPE
  6
BYLAYER
  9
$CECOLOR
 62
     7
  9
$CELTSCALE
 40
1.0
  9
$DELOBJ
 70
     1
  9
$DISPSILH
 70
     0
  9
$DIMSCALE
 40
1.0
  9
$DIMASZ
 40
0.18
  9
$DIMEXO
 40
0.0625
  9
$DIMDLI
 40
0.38
  9
$DIMRND
 40
0.0
  9
$DIMDLE
 40
0.0
  9
$DIMEXE
 40
0.18
  9
$DIMTP
 40
0.0
  9
$DIMTM
 40
0.0
  9
$DIMTXT
 40
0.0625
  9
$DIMCEN
 40
0.09
  9
$DIMTSZ
 40
0.0
  9
$DIMTOL
 70
     0
  9
$DIMLIM
 70
     0
  9
$DIMTIH
 70
     1
  9
$DIMTOH
 70
     1
  9
$DIMSE1
 70
     0
  9
$DIMSE2
 70
     0
  9
$DIMTAD
 70
     0
  9
$DIMZIN
 70
     0
  9
$DIMBLK
  1

  9
$DIMASO
 70
     1
  9
$DIMSHO
 70
     1
  9
$DIMPOST
  1

  9
$DIMAPOST
  1

  9
$DIMALT
 70
     0
  9
$DIMALTD
 70
     2
  9
$DIMALTF
 40
25.4
  9
$DIMLFAC
 40
1.0
  9
$DIMTOFL
 70
     0
  9
$DIMTVP
 40
0.0
  9
$DIMTIX
 70
     0
  9
$DIMSOXD
 70
     0
  9
$DIMSAH
 70
     0
  9
$DIMBLK1
  1

  9
$DIMBLK2
  1

  9
$DIMSTYLE
  2
STANDARD
  9
$DIMCLRD
 70
     0
  9
$DIMCLRE
 70
     0
  9
$DIMCLRT
 70
     0
  9
$DIMTFAC
 40
1.0
  9
$DIMGAP
 40
0.09
  9
$DIMJUST
 70
     0
  9
$DIMSD1
 70
     0
  9
$DIMSD2
 70
     0
  9
$DIMTOLJ
 70
     1
  9
$DIMTZIN
 70
     0
  9
$DIMALTZ
 70
     0
  9
$DIMALTTZ
 70
     0
  9
$DIMFIT
 70
     3
  9
$DIMUPT
 70
     0
  9
$DIMUNIT
 70
     4
  9
$DIMDEC
 70
     3
  9
$DIMTDEC
 70
     4
  9
$DIMALTU
 70
     2
  9
$DIMALTTD
 70
     2
  9
$DIMTXSTY
  7
STANDARD
  9
$DIMAUNIT
 70
     1
  9
$LUNITS
 70
     2
  9
$LUPREC
 70
     3
  9
$SKETCHINC
 40
0.1
  9
$FILLETRAD
 40
0.5
  9
$AUNITS
 70
     0
  9
$AUPREC
 70
     2
  9
$MENU
  1
.
  9
$ELEVATION
 40
0.0
  9
$PELEVATION
 40
0.0
  9
$THICKNESS
 40
0.0
  9
$LIMCHECK
 70
     0
  9
$BLIPMODE
 70
     0
  9
$CHAMFERA
 40
0.01
  9
$CHAMFERB
 40
0.01
  9
$CHAMFERC
 40
0.0
  9
$CHAMFERD
 40
0.0
  9
$SKPOLY
 70
     0
  9
$TDCREATE
 40
2452349.424495335
  9
$TDUPDATE
 40
2311955.477601296
  9
$TDINDWG
 40
0.0000038310
  9
$TDUSRTIMER
 40
0.0000038310
  9
$USRTIMER
 70
     1
  9
$ANGBASE
 50
0.0
  9
$ANGDIR
 70
     0
  9
$PDMODE
 70
     0
  9
$PDSIZE
 40
0.0
  9
$PLINEWID
 40
0.0
  9
$COORDS
 70
     0
  9
$SPLFRAME
 70
     0
  9
$SPLINETYPE
 70
     6
  9
$SPLINESEGS
 70
     8
  9
$ATTDIA
 70
     0
  9
$ATTREQ
 70
     1
  9
$HANDLING
 70
 12289
  9
$HANDSEED
  5
111
  9
$SURFTAB1
 70
     6
  9
$SURFTAB2
 70
     6
  9
$SURFTYPE
 70
     6
  9
$SURFU
 70
     6
  9
$SURFV
 70
     6
  9
$UCSNAME
  2

  9
$UCSORG
 10
0.0
 20
0.0
 30
0.0
  9
$UCSXDIR
 10
1.0
 20
0.0
 30
0.0
  9
$UCSYDIR
 10
0.0
 20
1.0
 30
0.0
  9
$PUCSNAME
  2

  9
$PUCSORG
 10
0.0
 20
0.0
 30
0.0
  9
$PUCSXDIR
 10
1.0
 20
0.0
 30
0.0
  9
$PUCSYDIR
 10
0.0
 20
1.0
 30
0.0
  9
$USERI1
 70
     0
  9
$USERI2
 70
     0
  9
$USERI3
 70
     0
  9
$USERI4
 70
     0
  9
$USERI5
 70
     0
  9
$USERR1
 40
0.0
  9
$USERR2
 40
0.0
  9
$USERR3
 40
0.0
  9
$USERR4
 40
0.0
  9
$USERR5
 40
0.0
  9
$WORLDVIEW
 70
     1
  9
$SHADEDGE
 70
     3
  9
$SHADEDIF
 70
    70
  9
$TILEMODE
 70
     1
  9
$MAXACTVP
 70
    64
  9
$PINSBASE
 10
0.0
 20
0.0
 30
0.0
  9
$PLIMCHECK
 70
     0
  9
$PEXTMIN
 10
1.000000000000000E+20
 20
1.000000000000000E+20
 30
1.000000000000000E+20
  9
$PEXTMAX
 10
-1.000000000000000E+20
 20
-1.000000000000000E+20
 30
-1.000000000000000E+20
  9
$PLIMMIN
 10
0.0
 20
0.0
  9
$PLIMMAX
 10
12.0
 20
9.0
  9
$UNITMODE
 70
     0
  9
$VISRETAIN
 70
     1
  9
$PLINEGEN
 70
     0
  9
$PSLTSCALE
 70
     1
  9
$TREEDEPTH
 70
  3020
  9
$PICKSTYLE
 70
     1
  9
$CMLSTYLE
  2
STANDARD
  9
$CMLJUST
 70
     0
  9
$CMLSCALE
 40
1.0
  9
$PROXYGRAPHICS
 70
     1
  9
$MEASUREMENT
 70
     0
  0
ENDSEC
  0
SECTION
  2
CLASSES
  0
CLASS
  1
ACDBDICTIONARYWDFLT
  2
AcDbDictionaryWithDefault
  3
AutoCAD 2000
 90
        0
280
     0
281
     0
  0
CLASS
  1
ACDBPLACEHOLDER
  2
AcDbPlaceHolder
  3
AutoCAD 2000
 90
        0
280
     0
281
     0
  0
CLASS
  1
LAYOUT
  2
AcDbLayout
  3
AutoCAD 2000
 90
        0
280
     0
281
     0
  0
CLASS
  1
LONG_TRANSACTION
  2
AcDbLongTransaction
  3
AutoCAD 2000
 90
        0
280
     0
281
     0
  0
CLASS
  1
LWPOLYLINE
  2
AcDbPolyline
  3
AutoCAD 2000
 90
        0
280
     0
281
     1
  0
CLASS
  1
HATCH
  2
AcDbHatch
  3
AutoCAD 2000
 90
        0
280
     0
281
     1
  0
CLASS
  1
XRECORD
  2
AcDbXrecord
  3
AutoCAD 2000
 90
        0
280
     0
281
     0
  0
ENDSEC
  0
SECTION
  2
TABLES
  0
TABLE
  2
VPORT
  5
8
330
0
100
AcDbSymbolTable
 70
     1
  0
VPORT
  5
13
330
8
100
AcDbSymbolTableRecord
100
AcDbViewportTableRecord
  2
*ACTIVE
 70
     0
 10
0.0
 20
0.0
 11
1.0
 21
1.0
 12
-1.014540179283385
 22
-0.3480658718363214
 13
0.0
 23
0.0
 14
1.0
 24
1.0
 15
0.0
 25
0.0
 16
0.0
 26
0.0
 36
1.0
 17
0.0
 27
0.0
 37
0.0
 40
3.43573386322023
 41
0.628129072517703
 42
50.0
 43
0.0
 44
0.0
 50
0.0
 51
0.0
 71
     0
 72
   100
 73
     1
 74
     1
 75
     0
 76
     0
 77
     0
 78
     0
  0
ENDTAB
  0
TABLE
  2
LTYPE
  5
5
330
0
100
AcDbSymbolTable
 70
    40
  0
LTYPE
  5
14
330
5
100
AcDbSymbolTableRecord
100
AcDbLinetypeTableRecord
  2
BYBLOCK
 70
     0
  3

 72
    65
 73
     0
 40
0.0
  0
LTYPE
  5
15
330
5
100
AcDbSymbolTableRecord
100
AcDbLinetypeTableRecord
  2
BYLAYER
 70
     0
  3

 72
    65
 73
     0
 40
0.0
  0
LTYPE
  5
16
330
5
100
AcDbSymbolTableRecord
100
AcDbLinetypeTableRecord
  2
CONTINUOUS
 70
     0
  3
Solid line
 72
    65
 73
     0
 40
0.0
  0
LTYPE
  5
28
330
5
100
AcDbSymbolTableRecord
100
AcDbLinetypeTableRecord
  2
HIDDEN
 70
     0
  3
_ _ _ _ _ _ _ _ _ _ _ _ _ _ 
 72
    65
 73
     2
 40
0.375
 49
0.25
 74
     0
 49
-0.125
 74
     0
  0
LTYPE
  5
29
330
5
100
AcDbSymbolTableRecord
100
AcDbLinetypeTableRecord
  2
DASHED
 70
     0
  3
__ __ __ __ __ __ __ __ __ 
 72
    65
 73
     2
 40
0.75
 49
0.5
 74
     0
 49
-0.25
 74
     0
  0
LTYPE
  5
2A
330
5
100
AcDbSymbolTableRecord
100
AcDbLinetypeTableRecord
  2
CENTER
 70
     0
  3
____ _ ____ _ ____ _ ____ _ 
 72
    65
 73
     4
 40
2.0
 49
1.25
 74
     0
 49
-0.25
 74
     0
 49
0.25
 74
     0
 49
-0.25
 74
     0
  0
LTYPE
  5
2B
330
5
100
AcDbSymbolTableRecord
100
AcDbLinetypeTableRecord
  2
PHANTOM
 70
     0
  3
_____ _ _ _____ _ _ _____ _ _ 
 72
    65
 73
     6
 40
2.5
 49
1.25
 74
     0
 49
-0.25
 74
     0
 49
0.25
 74
     0
 49
-0.25
 74
     0
 49
0.25
 74
     0
 49
-0.25
 74
     0
  0
LTYPE
  5
2C
330
5
100
AcDbSymbolTableRecord
100
AcDbLinetypeTableRecord
  2
DOT
 70
     0
  3
...........................
 72
    65
 73
     2
 40
0.25
 49
0.0
 74
     0
 49
-0.25
 74
     0
  0
LTYPE
  5
2D
330
5
100
AcDbSymbolTableRecord
100
AcDbLinetypeTableRecord
  2
DASHDOT
 70
     0
  3
__ . __ . __ . __ . __ . __ . 
 72
    65
 73
     4
 40
1.0
 49
0.5
 74
     0
 49
-0.25
 74
     0
 49
0.0
 74
     0
 49
-0.25
 74
     0
  0
LTYPE
  5
2E
330
5
100
AcDbSymbolTableRecord
100
AcDbLinetypeTableRecord
  2
DIVIDE
 70
     0
  3
__ . . __ . . __ . . __ . . 
 72
    65
 73
     6
 40
1.25
 49
0.5
 74
     0
 49
-0.25
 74
     0
 49
0.0
 74
     0
 49
-0.25
 74
     0
 49
0.0
 74
     0
 49
-0.25
 74
     0
  0
LTYPE
  5
2F
330
5
100
AcDbSymbolTableRecord
100
AcDbLinetypeTableRecord
  2
BORDER
 70
     0
  3
__ __ . __ __ . __ __ . __ __ .
 72
    65
 73
     6
 40
1.75
 49
0.5
 74
     0
 49
-0.25
 74
     0
 49
0.5
 74
     0
 49
-0.25
 74
     0
 49
0.0
 74
     0
 49
-0.25
 74
     0
  0
LTYPE
  5
30
330
5
100
AcDbSymbolTableRecord
100
AcDbLinetypeTableRecord
  2
BORDER2
 70
     0
  3
Border (.5x) __.__.__.__.__.__.
 72
    65
 73
     6
 40
0.875
 49
0.25
 74
     0
 49
-0.125
 74
     0
 49
0.25
 74
     0
 49
-0.125
 74
     0
 49
0.0
 74
     0
 49
-0.125
 74
     0
  0
LTYPE
  5
31
330
5
100
AcDbSymbolTableRecord
100
AcDbLinetypeTableRecord
  2
BORDERX2
 70
     0
  3
Border (2x) ____  ____  .  ____
 72
    65
 73
     6
 40
3.5
 49
1.0
 74
     0
 49
-0.5
 74
     0
 49
1.0
 74
     0
 49
-0.5
 74
     0
 49
0.0
 74
     0
 49
-0.5
 74
     0
  0
LTYPE
  5
32
330
5
100
AcDbSymbolTableRecord
100
AcDbLinetypeTableRecord
  2
CENTER2
 70
     0
  3
Center (.5x) ___ _ ___ _ ___ _ 
 72
    65
 73
     4
 40
1.125
 49
0.7500000000000001
 74
     0
 49
-0.125
 74
     0
 49
0.125
 74
     0
 49
-0.125
 74
     0
  0
LTYPE
  5
33
330
5
100
AcDbSymbolTableRecord
100
AcDbLinetypeTableRecord
  2
CENTERX2
 70
     0
  3
Center (2x) ________  __  _____
 72
    65
 73
     4
 40
4.0
 49
2.5
 74
     0
 49
-0.5
 74
     0
 49
0.5
 74
     0
 49
-0.5
 74
     0
  0
LTYPE
  5
34
330
5
100
AcDbSymbolTableRecord
100
AcDbLinetypeTableRecord
  2
DASHDOT2
 70
     0
  3
Dash dot (.5x) _._._._._._._._.
 72
    65
 73
     4
 40
0.5
 49
0.25
 74
     0
 49
-0.125
 74
     0
 49
0.0
 74
     0
 49
-0.125
 74
     0
  0
LTYPE
  5
35
330
5
100
AcDbSymbolTableRecord
100
AcDbLinetypeTableRecord
  2
DASHDOTX2
 70
     0
  3
Dash dot (2x) ____  .  ____  . 
 72
    65
 73
     4
 40
2.0
 49
1.0
 74
     0
 49
-0.5
 74
     0
 49
0.0
 74
     0
 49
-0.5
 74
     0
  0
LTYPE
  5
36
330
5
100
AcDbSymbolTableRecord
100
AcDbLinetypeTableRecord
  2
DASHED2
 70
     0
  3
Dashed (.5x) _ _ _ _ _ _ _ _ _ 
 72
    65
 73
     2
 40
0.375
 49
0.25
 74
     0
 49
-0.125
 74
     0
  0
LTYPE
  5
37
330
5
100
AcDbSymbolTableRecord
100
AcDbLinetypeTableRecord
  2
DASHEDX2
 70
     0
  3
Dashed (2x) ____  ____  ____  _
 72
    65
 73
     2
 40
1.5
 49
1.0
 74
     0
 49
-0.5
 74
     0
  0
LTYPE
  5
38
330
5
100
AcDbSymbolTableRecord
100
AcDbLinetypeTableRecord
  2
DIVIDE2
 70
     0
  3
Divide (.5x) __..__..__..__..__
 72
    65
 73
     6
 40
0.625
 49
0.25
 74
     0
 49
-0.125
 74
     0
 49
0.0
 74
     0
 49
-0.125
 74
     0
 49
0.0
 74
     0
 49
-0.125
 74
     0
  0
LTYPE
  5
39
330
5
100
AcDbSymbolTableRecord
100
AcDbLinetypeTableRecord
  2
DIVIDEX2
 70
     0
  3
Divide (2x) ________  .  .  ___
 72
    65
 73
     6
 40
2.5
 49
1.0
 74
     0
 49
-0.5
 74
     0
 49
0.0
 74
     0
 49
-0.5
 74
     0
 49
0.0
 74
     0
 49
-0.5
 74
     0
  0
LTYPE
  5
3A
330
5
100
AcDbSymbolTableRecord
100
AcDbLinetypeTableRecord
  2
DOT2
 70
     0
  3
Dot (.5x) .....................
 72
    65
 73
     2
 40
0.125
 49
0.0
 74
     0
 49
-0.125
 74
     0
  0
LTYPE
  5
3B
330
5
100
AcDbSymbolTableRecord
100
AcDbLinetypeTableRecord
  2
DOTX2
 70
     0
  3
Dot (2x) .  .  .  .  .  .  .  .
 72
    65
 73
     2
 40
0.5
 49
0.0
 74
     0
 49
-0.5
 74
     0
  0
LTYPE
  5
3C
330
5
100
AcDbSymbolTableRecord
100
AcDbLinetypeTableRecord
  2
HIDDEN2
 70
     0
  3
Hidden (.5x) _ _ _ _ _ _ _ _ _ 
 72
    65
 73
     2
 40
0.1875
 49
0.125
 74
     0
 49
-0.0625
 74
     0
  0
LTYPE
  5
3D
330
5
100
AcDbSymbolTableRecord
100
AcDbLinetypeTableRecord
  2
HIDDENX2
 70
     0
  3
Hidden (2x) ____ ____ ____ ____
 72
    65
 73
     2
 40
0.75
 49
0.5
 74
     0
 49
-0.25
 74
     0
  0
LTYPE
  5
3E
330
5
100
AcDbSymbolTableRecord
100
AcDbLinetypeTableRecord
  2
PHANTOM2
 70
     0
  3
Phantom (.5x) ___ _ _ ___ _ _ _
 72
    65
 73
     6
 40
1.25
 49
0.6250000000000001
 74
     0
 49
-0.125
 74
     0
 49
0.125
 74
     0
 49
-0.125
 74
     0
 49
0.125
 74
     0
 49
-0.125
 74
     0
  0
LTYPE
  5
3F
330
5
100
AcDbSymbolTableRecord
100
AcDbLinetypeTableRecord
  2
PHANTOMX2
 70
     0
  3
Phantom (2x) ____________    __
 72
    65
 73
     6
 40
5.0
 49
2.5
 74
     0
 49
-0.5
 74
     0
 49
0.5
 74
     0
 49
-0.5
 74
     0
 49
0.5
 74
     0
 49
-0.5
 74
     0
  0
LTYPE
  5
40
330
5
100
AcDbSymbolTableRecord
100
AcDbLinetypeTableRecord
  2
DOTS
 70
     0
  3
Dots - - - - - - - - - - - - - 
 72
    65
 73
     2
 40
0.1
 49
0.05
 74
     0
 49
-0.05
 74
     0
  0
LTYPE
  5
41
330
5
100
AcDbSymbolTableRecord
100
AcDbLinetypeTableRecord
  2
ACAD_ISO02W100
 70
     0
  3
__ __ __ __ __ __ __ __ __ __ _
 72
    65
 73
     2
 40
15.0
 49
12.0
 74
     0
 49
-3.0
 74
     0
  0
LTYPE
  5
42
330
5
100
AcDbSymbolTableRecord
100
AcDbLinetypeTableRecord
  2
ACAD_ISO03W100
 70
     0
  3
__    __    __    __    __    _
 72
    65
 73
     2
 40
30.0
 49
12.0
 74
     0
 49
-18.0
 74
     0
  0
LTYPE
  5
43
330
5
100
AcDbSymbolTableRecord
100
AcDbLinetypeTableRecord
  2
ACAD_ISO04W100
 70
     0
  3
____ . ____ . ____ . ____ . ___
 72
    65
 73
     4
 40
30.5
 49
24.0
 74
     0
 49
-3.0
 74
     0
 49
0.5
 74
     0
 49
-3.0
 74
     0
  0
LTYPE
  5
44
330
5
100
AcDbSymbolTableRecord
100
AcDbLinetypeTableRecord
  2
ACAD_ISO05W100
 70
     0
  3
____ .. ____ .. ____ .. ____ ..
 72
    65
 73
     6
 40
34.0
 49
24.0
 74
     0
 49
-3.0
 74
     0
 49
0.5
 74
     0
 49
-3.0
 74
     0
 49
0.5
 74
     0
 49
-3.0
 74
     0
  0
LTYPE
  5
45
330
5
100
AcDbSymbolTableRecord
100
AcDbLinetypeTableRecord
  2
ACAD_ISO06W100
 70
     0
  3
____ ... ____ ... ____ ... ____
 72
    65
 73
     6
 40
34.0
 49
24.0
 74
     0
 49
-3.0
 74
     0
 49
0.5
 74
     0
 49
-3.0
 74
     0
 49
0.5
 74
     0
 49
-3.0
 74
     0
  0
LTYPE
  5
46
330
5
100
AcDbSymbolTableRecord
100
AcDbLinetypeTableRecord
  2
ACAD_ISO07W100
 70
     0
  3
. . . . . . . . . . . . . . . .
 72
    65
 73
     2
 40
3.5
 49
0.5
 74
     0
 49
-3.0
 74
     0
  0
LTYPE
  5
47
330
5
100
AcDbSymbolTableRecord
100
AcDbLinetypeTableRecord
  2
ACAD_ISO08W100
 70
     0
  3
____ __ ____ __ ____ __ ____ __
 72
    65
 73
     4
 40
36.0
 49
24.0
 74
     0
 49
-3.0
 74
     0
 49
6.0
 74
     0
 49
-3.0
 74
     0
  0
LTYPE
  5
48
330
5
100
AcDbSymbolTableRecord
100
AcDbLinetypeTableRecord
  2
ACAD_ISO09W100
 70
     0
  3
____ __ __ ____ __ __ ____ __ _
 72
    65
 73
     6
 40
45.0
 49
24.0
 74
     0
 49
-3.0
 74
     0
 49
6.0
 74
     0
 49
-3.0
 74
     0
 49
6.0
 74
     0
 49
-3.0
 74
     0
  0
LTYPE
  5
49
330
5
100
AcDbSymbolTableRecord
100
AcDbLinetypeTableRecord
  2
ACAD_ISO10W100
 70
     0
  3
__ . __ . __ . __ . __ . __ . _
 72
    65
 73
     4
 40
18.5
 49
12.0
 74
     0
 49
-3.0
 74
     0
 49
0.5
 74
     0
 49
-3.0
 74
     0
  0
LTYPE
  5
4A
330
5
100
AcDbSymbolTableRecord
100
AcDbLinetypeTableRecord
  2
ACAD_ISO11W100
 70
     0
  3
__ __ . __ __ . __ __ . __ __ .
 72
    65
 73
     6
 40
33.5
 49
12.0
 74
     0
 49
-3.0
 74
     0
 49
12.0
 74
     0
 49
-3.0
 74
     0
 49
0.5
 74
     0
 49
-3.0
 74
     0
  0
LTYPE
  5
4B
330
5
100
AcDbSymbolTableRecord
100
AcDbLinetypeTableRecord
  2
ACAD_ISO12W100
 70
     0
  3
__ . . __ . . __ . . __ . . __ 
 72
    65
 73
     6
 40
22.0
 49
12.0
 74
     0
 49
-3.0
 74
     0
 49
0.5
 74
     0
 49
-3.0
 74
     0
 49
0.5
 74
     0
 49
-3.0
 74
     0
  0
LTYPE
  5
4C
330
5
100
AcDbSymbolTableRecord
100
AcDbLinetypeTableRecord
  2
ACAD_ISO13W100
 70
     0
  3
__ __ . . __ __ . . __ __ . . _
 72
    65
 73
     6
 40
33.5
 49
12.0
 74
     0
 49
-3.0
 74
     0
 49
12.0
 74
     0
 49
-3.0
 74
     0
 49
0.5
 74
     0
 49
-3.0
 74
     0
  0
LTYPE
  5
4D
330
5
100
AcDbSymbolTableRecord
100
AcDbLinetypeTableRecord
  2
ACAD_ISO14W100
 70
     0
  3
__ . . . __ . . . __ . . . __ .
 72
    65
 73
     6
 40
22.0
 49
12.0
 74
     0
 49
-3.0
 74
     0
 49
0.5
 74
     0
 49
-3.0
 74
     0
 49
0.5
 74
     0
 49
-3.0
 74
     0
  0
LTYPE
  5
4E
330
5
100
AcDbSymbolTableRecord
100
AcDbLinetypeTableRecord
  2
ACAD_ISO15W100
 70
     0
  3
__ __ . . . __ __ . . . __ __ .
 72
    65
 73
     6
 40
33.5
 49
12.0
 74
     0
 49
-3.0
 74
     0
 49
12.0
 74
     0
 49
-3.0
 74
     0
 49
0.5
 74
     0
 49
-3.0
 74
     0
  0
ENDTAB
  0
TABLE
  2
LAYER
  5
2
330
0
100
AcDbSymbolTable
 70
     2
  0
LAYER
  5
10
330
2
100
AcDbSymbolTableRecord
100
AcDbLayerTableRecord
  2
0
 70
     0
 62
     7
  6
CONTINUOUS
  0
LAYER
  5
4F
330
2
100
AcDbSymbolTableRecord
100
AcDbLayerTableRecord
  2
1
 70
     0
 62
     7
  6
CONTINUOUS
  0
ENDTAB
  0
TABLE
  2
STYLE
  5
3
330
0
100
AcDbSymbolTable
 70
     5
  0
STYLE
  5
11
330
3
100
AcDbSymbolTableRecord
100
AcDbTextStyleTableRecord
  2
STANDARD
 70
     0
 40
0.0
 41
1.0
 50
0.0
 71
     0
 42
0.1
  3
txt
  4

  0
STYLE
  5
50
330
3
100
AcDbSymbolTableRecord
100
AcDbTextStyleTableRecord
  2
ITALIC
 70
     0
 40
0.0
 41
1.0
 50
0.0
 71
     0
 42
0.1
  3
ITALIC
  4

  0
STYLE
  5
51
330
3
100
AcDbSymbolTableRecord
100
AcDbTextStyleTableRecord
  2
SIMPLEX
 70
     0
 40
0.0
 41
1.0
 50
0.0
 71
     0
 42
0.1
  3
SIMPLEX
  4

  0
STYLE
  5
52
330
3
100
AcDbSymbolTableRecord
100
AcDbTextStyleTableRecord
  2
COMPLEX
 70
     0
 40
0.0
 41
1.0
 50
0.0
 71
     0
 42
0.1
  3
COMPLEX
  4

  0
STYLE
  5
5E
330
3
100
AcDbSymbolTableRecord
100
AcDbTextStyleTableRecord
  2
ARIAL
 70
     0
 40
0.0
 41
1.0
 50
0.0
 71
     0
 42
0.1
  3
ARIAL.TTF
  4

1001
ACAD
1000
Arial
1071
        0
  0
ENDTAB
  0
TABLE
  2
VIEW
  5
6
330
0
100
AcDbSymbolTable
 70
     0
  0
ENDTAB
  0
TABLE
  2
UCS
  5
7
330
0
100
AcDbSymbolTable
 70
     0
  0
ENDTAB
  0
TABLE
  2
APPID
  5
9
330
0
100
AcDbSymbolTable
 70
     1
  0
APPID
  5
12
330
9
100
AcDbSymbolTableRecord
100
AcDbRegAppTableRecord
  2
ACAD
 70
     0
  0
ENDTAB
  0
TABLE
  2
DIMSTYLE
  5
A
330
0
100
AcDbSymbolTable
 70
     1
  0
DIMSTYLE
105
27
330
A
100
AcDbSymbolTableRecord
100
AcDbDimStyleTableRecord
  2
STANDARD
 70
     0
  3

  4

  5

  6

  7

 40
1.0
 41
0.18
 42
0.0625
 43
0.38
 44
0.18
 45
0.0
 46
0.0
 47
0.0
 48
0.0
140
0.18
141
0.09
142
0.0
143
25.4
144
1.0
145
0.0
146
1.0
147
0.09
 71
     0
 72
     0
 73
     1
 74
     1
 75
     0
 76
     0
 77
     0
 78
     0
170
     0
171
     2
172
     0
173
     0
174
     0
175
     0
176
     0
177
     0
178
     0
270
     2
271
     4
272
     4
273
     2
274
     2
340
11
275
     0
280
     0
281
     0
282
     0
283
     1
284
     0
285
     0
286
     0
287
     3
288
     0
  0
ENDTAB
  0
TABLE
  2
BLOCK_RECORD
  5
1
330
0
100
AcDbSymbolTable
 70
     2
  0
BLOCK_RECORD
  5
1F
102
{ACAD_XDICTIONARY
360
10D
102
}
330
1
100
AcDbSymbolTableRecord
100
AcDbBlockTableRecord
  2
*MODEL_SPACE
  0
BLOCK_RECORD
  5
1B
102
{ACAD_XDICTIONARY
360
10B
102
}
330
1
100
AcDbSymbolTableRecord
100
AcDbBlockTableRecord
  2
*PAPER_SPACE
  0
BLOCK_RECORD
  5
64
330
1
100
AcDbSymbolTableRecord
100
AcDbBlockTableRecord
  2
LONGARROW
  0
ENDTAB
  0
ENDSEC
  0
SECTION
  2
BLOCKS
  0
BLOCK
  5
20
330
1F
100
AcDbEntity
  8
0
100
AcDbBlockBegin
  2
*MODEL_SPACE
 70
     0
 10
0.0
 20
0.0
 30
0.0
  3
*MODEL_SPACE
  1

  0
ENDBLK
  5
21
330
1F
100
AcDbEntity
  8
0
100
AcDbBlockEnd
  0
BLOCK
  5
1C
330
1B
100
AcDbEntity
 67
     1
  8
0
100
AcDbBlockBegin
  2
*PAPER_SPACE
 70
     0
 10
0.0
 20
0.0
 30
0.0
  3
*PAPER_SPACE
  1

  0
ENDBLK
  5
1D
330
1B
100
AcDbEntity
 67
     1
  8
0
100
AcDbBlockEnd
  0
BLOCK
  5
67
330
64
100
AcDbEntity
  8
0
 62
     7
100
AcDbBlockBegin
  2
LONGARROW
 70
     0
 10
0.0
 20
0.0
 30
0.0
  3
LONGARROW
  1

  0
LWPOLYLINE
  5
65
102
{ACAD_REACTORS
330
66
102
}
330
64
100
AcDbEntity
  8
1
  6
CONTINUOUS
 62
     0
100
AcDbPolyline
 90
        3
 70
     1
 43
0.0
 10
0.0
 20
0.0
 10
2.0
 20
-0.25
 10
2.0
 20
0.25
  0
HATCH
  5
66
330
64
100
AcDbEntity
  8
1
  6
CONTINUOUS
 62
     0
100
AcDbHatch
 10
0.0
 20
0.0
 30
0.0
210
0.0
220
0.0
230
1.0
  2
SOLID
 70
     1
 71
     1
 91
        1
 92
        1
 93
        3
 72
     1
 10
0.0
 20
0.0
 11
2.0
 21
-0.25
 72
     1
 10
2.0
 20
-0.25
 11
2.0
 21
0.25
 72
     1
 10
2.0
 20
0.25
 11
0.0
 21
0.0
 97
        1
330
65
 75
     0
 76
     1
 98
        1
 10
0.0
 20
0.0
  0
ENDBLK
  5
68
330
64
100
AcDbEntity
  8
0
 62
     7
100
AcDbBlockEnd
  0
ENDSEC
  0
SECTION
  2
ENTITIES
  0
LWPOLYLINE
  5
53
330
1F
100
AcDbEntity
  8
1
  6
CONTINUOUS
 62
     7
100
AcDbPolyline
 90
       18
 70
     0
 43
0.0
 10
0.0374999999999854
 20
1.025
 10
0.0374999999999854
 20
1.15
 10
0.0259999999999998
 20
1.15
 10
0.0259999999999998
 20
0.2750000000000003
 10
0.0
 20
0.2750000000000003
 10
0.0
 20
0.0
 10
0.0374999999999943
 20
0.0000000000000187
 10
0.052499999999994
 20
0.0149999999999997
 10
0.052499999999994
 20
0.0499999999999998
 10
0.0199999999999943
 20
0.0499999999999998
 10
0.0199999999999943
 20
0.1049999999999995
 10
0.0374999999999934
 20
0.1049999999999995
 10
0.0374999999999934
 20
0.2299999999999995
 10
0.0525000000000011
 20
0.2299999999999995
 10
0.0525000000000002
 20
0.9250000000000007
 10
0.1050000000000004
 20
0.9250000000000007
 10
0.1050000000000004
 20
1.025
 10
0.0374999999999854
 20
1.025
  0
LINE
  5
54
330
1F
100
AcDbEntity
  8
1
  6
CENTER
 62
     7
100
AcDbLine
 10
-0.5100000000000007
 20
2.61904491355831
 30
0.0
 11
-0.5100000000000007
 21
-1.520176388171869
 31
0.0
  0
LWPOLYLINE
  5
55
330
1F
100
AcDbEntity
  8
1
  6
CONTINUOUS
 62
     7
100
AcDbPolyline
 90
       18
 70
     0
 43
0.0
 10
-1.057499999999985
 20
1.025
 10
-1.057499999999985
 20
1.15
 10
-1.045999999999999
 20
1.15
 10
-1.045999999999999
 20
0.2750000000000003
 10
-1.019999999999999
 20
0.2750000000000003
 10
-1.019999999999999
 20
0.0
 10
-1.057499999999994
 20
0.0000000000000187
 10
-1.072499999999993
 20
0.0149999999999997
 10
-1.072499999999993
 20
0.0499999999999998
 10
-1.039999999999994
 20
0.0499999999999998
 10
-1.039999999999994
 20
0.1049999999999995
 10
-1.057499999999993
 20
0.1049999999999995
 10
-1.057499999999993
 20
0.2299999999999995
 10
-1.0725
 20
0.2299999999999995
 10
-1.0725
 20
0.9250000000000007
 10
-1.125
 20
0.9250000000000007
 10
-1.125
 20
1.025
 10
-1.057499999999985
 20
1.025
  0
CIRCLE
  5
56
330
1F
100
AcDbEntity
  8
1
  6
CONTINUOUS
 62
     7
100
AcDbCircle
 10
-0.5100000000000005
 20
2.265155085488919
 30
0.0
 40
0.5360000000000001
  0
CIRCLE
  5
57
330
1F
100
AcDbEntity
  8
1
  6
CONTINUOUS
 62
     7
100
AcDbCircle
 10
-0.5100000000000005
 20
2.265155085488919
 30
0.0
 40
0.5474999999999999
  0
LWPOLYLINE
  5
58
330
1F
100
AcDbEntity
  8
1
  6
CONTINUOUS
 62
     7
100
AcDbPolyline
 90
        8
 70
     1
 43
0.0
 10
-1.125000000000001
 20
1.76215508548892
 10
-1.050000000000001
 20
1.68715508548892
 10
0.0299999999999996
 20
1.687155085488919
 10
0.1049999999999998
 20
1.76215508548892
 10
0.1049999999999998
 20
2.768155085488916
 10
0.0299999999999996
 20
2.843155085488915
 10
-1.050000000000001
 20
2.843155085488915
 10
-1.125000000000001
 20
2.768155085488916
  0
CIRCLE
  5
59
330
1F
100
AcDbEntity
  8
1
  6
CONTINUOUS
 62
     7
100
AcDbCircle
 10
-0.0340000000000004
 20
2.74115508548892
 30
0.0
 40
0.0430000000000002
  0
CIRCLE
  5
5A
330
1F
100
AcDbEntity
  8
1
  6
CONTINUOUS
 62
     7
100
AcDbCircle
 10
-0.9860000000000004
 20
2.74115508548892
 30
0.0
 40
0.0430000000000002
  0
CIRCLE
  5
5B
330
1F
100
AcDbEntity
  8
1
  6
CONTINUOUS
 62
     7
100
AcDbCircle
 10
-0.9859999999999999
 20
1.789155085488921
 30
0.0
 40
0.0430000000000002
  0
CIRCLE
  5
5C
330
1F
100
AcDbEntity
  8
1
  6
CONTINUOUS
 62
     7
100
AcDbCircle
 10
-0.0340000000000009
 20
1.789155085488919
 30
0.0
 40
0.0430000000000002
  0
CIRCLE
  5
5D
330
1F
100
AcDbEntity
  8
1
  6
CONTINUOUS
 62
     7
100
AcDbCircle
 10
-0.5100000000000005
 20
2.265155085488919
 30
0.0
 40
0.5099999999999998
  0
TEXT
  5
5F
330
1F
100
AcDbEntity
  8
1
  6
CONTINUOUS
 62
     7
100
AcDbText
 10
0.9355190337076773
 20
2.233905085488917
 30
0.0
 40
0.0625
  1
1.156"
  7
ARIAL
 72
     1
 11
1.047499999999998
 21
2.265155085488917
 31
0.0
100
AcDbText
 73
     2
  0
LINE
  5
60
330
1F
100
AcDbEntity
  8
1
  6
CONTINUOUS
 62
     7
100
AcDbLine
 10
0.1674999999999998
 20
2.843155085488915
 30
0.0
 11
1.172499999999998
 21
2.843155085488915
 31
0.0
  0
LINE
  5
61
330
1F
100
AcDbEntity
  8
1
  6
CONTINUOUS
 62
     7
100
AcDbLine
 10
0.1674999999999998
 20
1.687155085488919
 30
0.0
 11
1.172499999999999
 21
1.687155085488919
 31
0.0
  0
LINE
  5
62
330
1F
100
AcDbEntity
  8
1
  6
CONTINUOUS
 62
     7
100
AcDbLine
 10
1.047499999999998
 20
2.843155085488915
 30
0.0
 11
1.047499999999998
 21
2.312030085488917
 31
0.0
  0
LINE
  5
63
330
1F
100
AcDbEntity
  8
1
  6
CONTINUOUS
 62
     7
100
AcDbLine
 10
1.047499999999999
 20
1.687155085488919
 30
0.0
 11
1.047499999999998
 21
2.218280085488917
 31
0.0
  0
INSERT
  5
69
330
1F
100
AcDbEntity
  8
1
  6
CONTINUOUS
 62
     7
100
AcDbBlockReference
  2
LONGARROW
 10
1.047499999999998
 20
2.843155085488915
 30
0.0
 41
0.0625
 42
0.0625
 50
270.0
  0
INSERT
  5
6A
330
1F
100
AcDbEntity
  8
1
  6
CONTINUOUS
 62
     7
100
AcDbBlockReference
  2
LONGARROW
 10
1.047499999999999
 20
1.687155085488919
 30
0.0
 41
0.0625
 42
0.0625
 50
90.00000000000005
  0
TEXT
  5
6B
330
1F
100
AcDbEntity
  8
1
  6
CONTINUOUS
 62
     7
100
AcDbText
 10
-0.6219809662923225
 20
3.126707527159641
 30
0.0
 40
0.0625
  1
1.230"
  7
ARIAL
 72
     1
 11
-0.5100000000000008
 21
3.157957527159641
 31
0.0
100
AcDbText
 73
     2
  0
LINE
  5
6C
330
1F
100
AcDbEntity
  8
1
  6
CONTINUOUS
 62
     7
100
AcDbLine
 10
-1.125000000000001
 20
2.905655085488915
 30
0.0
 11
-1.125000000000001
 21
3.282957527159641
 31
0.0
  0
LINE
  5
6D
330
1F
100
AcDbEntity
  8
1
  6
CONTINUOUS
 62
     7
100
AcDbLine
 10
0.1049999999999998
 20
2.905655085488915
 30
0.0
 11
0.1049999999999998
 21
3.282957527159641
 31
0.0
  0
LINE
  5
6E
330
1F
100
AcDbEntity
  8
1
  6
CONTINUOUS
 62
     7
100
AcDbLine
 10
-1.125000000000001
 20
3.157957527159641
 30
0.0
 11
-0.6779714564234026
 21
3.157957527159641
 31
0.0
  0
LINE
  5
6F
330
1F
100
AcDbEntity
  8
1
  6
CONTINUOUS
 62
     7
100
AcDbLine
 10
0.1049999999999998
 20
3.157957527159641
 30
0.0
 11
-0.3420285435765989
 21
3.157957527159641
 31
0.0
  0
INSERT
  5
70
330
1F
100
AcDbEntity
  8
1
  6
CONTINUOUS
 62
     7
100
AcDbBlockReference
  2
LONGARROW
 10
-1.125000000000001
 20
3.157957527159641
 30
0.0
 41
0.0625
 42
0.0625
  0
INSERT
  5
71
330
1F
100
AcDbEntity
  8
1
  6
CONTINUOUS
 62
     7
100
AcDbBlockReference
  2
LONGARROW
 10
0.1049999999999998
 20
3.157957527159641
 30
0.0
 41
0.0625
 42
0.0625
 50
180.0
  0
LINE
  5
72
330
1F
100
AcDbEntity
  8
1
  6
CONTINUOUS
 62
     7
100
AcDbLine
 10
-1.005805826175842
 20
1.64296091166476
 30
0.0
 11
-0.7520481951590997
 21
1.389203280648017
 31
0.0
  0
TEXT
  5
73
330
1F
100
AcDbEntity
  8
1
  6
CONTINUOUS
 62
     7
100
AcDbText
 10
-1.217726715238628
 20
1.376974159081341
 30
0.0
 40
0.0625
  1
4x 45°
  7
ARIAL
 72
     1
 11
-1.106178275639055
 21
1.408224159081341
 31
0.0
100
AcDbText
 73
     2
  0
ARC
  5
74
330
1F
100
AcDbEntity
  8
1
  6
CONTINUOUS
 62
     7
100
AcDbCircle
 10
-1.050000000000001
 20
1.68715508548892
 30
0.0
 40
0.2963674833395457
100
AcDbArc
 50
291.6101664522427
 51
314.9999999999999
  0
ARC
  5
75
330
1F
100
AcDbEntity
  8
1
  6
CONTINUOUS
 62
     7
100
AcDbCircle
 10
-1.050000000000001
 20
1.68715508548892
 30
0.0
 40
0.2963674833395457
100
AcDbArc
 50
314.9999999999999
 51
0.0
  0
INSERT
  5
76
330
1F
100
AcDbEntity
  8
1
  6
CONTINUOUS
 62
     7
100
AcDbBlockReference
  2
LONGARROW
 10
-0.8404365428074179
 20
1.477591628296335
 30
0.0
 41
0.0375
 42
0.0375
 50
52.24975529545172
  0
INSERT
  5
77
330
1F
100
AcDbEntity
  8
1
  6
CONTINUOUS
 62
     7
100
AcDbBlockReference
  2
LONGARROW
 10
-0.7536325166604558
 20
1.68715508548892
 30
0.0
 41
0.0375
 42
0.0375
 50
262.7502447045481
  0
TEXT
  5
78
330
1F
100
AcDbEntity
  8
1
  6
CONTINUOUS
 62
     7
100
AcDbText
 10
-1.789251726120711
 20
1.42153008548892
 30
0.0
 40
0.0625
  1
4x 0.075"
  7
ARIAL
 72
     1
 11
-1.625000000000001
 21
1.45278008548892
 31
0.0
100
AcDbText
 73
     2
  0
LINE
  5
79
330
1F
100
AcDbEntity
  8
1
  6
CONTINUOUS
 62
     7
100
AcDbLine
 10
-1.187500000000001
 20
1.76215508548892
 30
0.0
 11
-1.750000000000001
 21
1.76215508548892
 31
0.0
  0
LINE
  5
7A
330
1F
100
AcDbEntity
  8
1
  6
CONTINUOUS
 62
     7
100
AcDbLine
 10
-1.187500000000001
 20
1.68715508548892
 30
0.0
 11
-1.750000000000001
 21
1.68715508548892
 31
0.0
  0
LINE
  5
7B
330
1F
100
AcDbEntity
  8
1
  6
CONTINUOUS
 62
     7
100
AcDbLine
 10
-1.625000000000001
 20
1.76215508548892
 30
0.0
 11
-1.625000000000001
 21
1.94965508548892
 31
0.0
  0
LINE
  5
7C
330
1F
100
AcDbEntity
  8
1
  6
CONTINUOUS
 62
     7
100
AcDbLine
 10
-1.625000000000001
 20
1.68715508548892
 30
0.0
 11
-1.625000000000001
 21
1.49965508548892
 31
0.0
  0
INSERT
  5
7D
330
1F
100
AcDbEntity
  8
1
  6
CONTINUOUS
 62
     7
100
AcDbBlockReference
  2
LONGARROW
 10
-1.625000000000001
 20
1.76215508548892
 30
0.0
 41
0.0625
 42
0.0625
 50
90.00000000000007
  0
INSERT
  5
7E
330
1F
100
AcDbEntity
  8
1
  6
CONTINUOUS
 62
     7
100
AcDbBlockReference
  2
LONGARROW
 10
-1.625000000000001
 20
1.68715508548892
 30
0.0
 41
0.0625
 42
0.0625
 50
270.0
  0
LINE
  5
7F
330
1F
100
AcDbEntity
  8
1
  6
CENTER
 62
     7
100
AcDbLine
 10
-0.9860000000000002
 20
2.74115508548892
 30
0.0
 11
0.2867922061357853
 21
1.468362879353134
 31
0.0
  0
LINE
  5
80
330
1F
100
AcDbEntity
  8
1
  6
CENTER
 62
     7
100
AcDbLine
 10
-0.9859999999999995
 20
1.789155085488921
 30
0.0
 11
-0.0339999999999991
 21
2.741155085488922
 31
0.0
  0
TEXT
  5
81
330
1F
100
AcDbEntity
  8
1
  6
CONTINUOUS
 62
     7
100
AcDbText
 10
0.2867109720666035
 20
1.74894238730161
 30
0.0
 40
0.0625
  1
4x 0.673"
  7
ARIAL
 72
     1
 11
0.4509626981873139
 21
1.78019238730161
 31
0.0
100
AcDbText
 73
     2
  0
LINE
  5
82
330
1F
100
AcDbEntity
  8
1
  6
CONTINUOUS
 62
     7
100
AcDbLine
 10
0.0101941738241602
 20
2.696960911664763
 30
0.0
 11
0.7773510458356334
 21
1.929804039653292
 31
0.0
  0
LINE
  5
83
330
1F
100
AcDbEntity
  8
1
  6
CONTINUOUS
 62
     7
100
AcDbLine
 10
0.2129626981873129
 20
1.542192387301609
 30
0.0
 11
0.404087698187314
 21
1.73331738730161
 31
0.0
  0
LINE
  5
84
330
1F
100
AcDbEntity
  8
1
  6
CONTINUOUS
 62
     7
100
AcDbLine
 10
0.6889626981873147
 20
2.018192387301611
 30
0.0
 11
0.4978376981873138
 21
1.82706738730161
 31
0.0
  0
INSERT
  5
85
330
1F
100
AcDbEntity
  8
1
  6
CONTINUOUS
 62
     7
100
AcDbBlockReference
  2
LONGARROW
 10
0.2129626981873129
 20
1.542192387301609
 30
0.0
 41
0.0625
 42
0.0625
 50
45.00000000000002
  0
INSERT
  5
86
330
1F
100
AcDbEntity
  8
1
  6
CONTINUOUS
 62
     7
100
AcDbBlockReference
  2
LONGARROW
 10
0.6889626981873147
 20
2.018192387301611
 30
0.0
 41
0.0625
 42
0.0625
 50
225.0
  0
TEXT
  5
87
330
1F
100
AcDbEntity
  8
1
  6
CONTINUOUS
 62
     7
100
AcDbText
 10
-0.2593507087468471
 20
2.10979151418175
 30
0.0
 40
0.0625
  1
4x 45°
  7
ARIAL
 72
     1
 11
-0.1478022691472735
 21
2.14104151418175
 31
0.0
100
AcDbText
 73
     2
  0
ARC
  5
88
330
1F
100
AcDbEntity
  8
1
  6
CONTINUOUS
 62
     7
100
AcDbCircle
 10
-0.5100000000000005
 20
2.26515508548892
 30
0.0
 40
0.4054513259748109
100
AcDbArc
 50
270.0
 51
315.0
  0
ARC
  5
89
330
1F
100
AcDbEntity
  8
1
  6
CONTINUOUS
 62
     7
100
AcDbCircle
 10
-0.5100000000000005
 20
2.26515508548892
 30
0.0
 40
0.4054513259748109
100
AcDbArc
 50
315.0
 51
334.0828669554742
  0
INSERT
  5
8A
330
1F
100
AcDbEntity
  8
1
  6
CONTINUOUS
 62
     7
100
AcDbBlockReference
  2
LONGARROW
 10
-0.5100000000000002
 20
1.859703759514109
 30
0.0
 41
0.0375
 42
0.0375
 50
5.299259353943037
  0
INSERT
  5
8B
330
1F
100
AcDbEntity
  8
1
  6
CONTINUOUS
 62
     7
100
AcDbBlockReference
  2
LONGARROW
 10
-0.2233026179621344
 20
1.978457703451054
 30
0.0
 41
0.0375
 42
0.0375
 50
219.700740646057
  0
LINE
  5
8C
330
1F
100
AcDbEntity
  8
1
  6
CONTINUOUS
 62
     7
100
AcDbLine
 10
-1.005919495916807
 20
2.703047163970943
 30
0.0
 11
-1.092777762995906
 21
2.536878901537902
 31
0.0
  0
LINE
  5
8D
330
1F
100
AcDbEntity
  8
1
  6
CONTINUOUS
 62
     7
100
AcDbLine
 10
-1.092777762995906
 20
2.536878901537902
 30
0.0
 11
-1.280277762995906
 21
2.536878901537902
 31
0.0
  0
INSERT
  5
8E
330
1F
100
AcDbEntity
  8
1
  6
CONTINUOUS
 62
     7
100
AcDbBlockReference
  2
LONGARROW
 10
-1.005919495916807
 20
2.703047163970943
 30
0.0
 41
0.0625
 42
0.0625
 50
242.4033582894947
  0
TEXT
  5
8F
330
1F
100
AcDbEntity
  8
1
  6
CONTINUOUS
 62
     7
100
AcDbText
 10
-1.788874215880282
 20
2.505628901537902
 30
0.0
 40
0.0625
  1
4x R 0.043"
  7
ARIAL
 72
     1
 11
-1.585435638638087
 21
2.536878901537902
 31
0.0
100
AcDbText
 73
     2
  0
TEXT
  5
90
330
1F
100
AcDbEntity
  8
1
  6
CONTINUOUS
 62
     7
100
AcDbText
 10
-1.539952422715717
 20
-0.171737394474082
 30
0.0
 40
0.0625
  1
0.563"
  7
ARIAL
 72
     1
 11
-1.427971456423395
 21
-0.140487394474082
 31
0.0
100
AcDbText
 73
     2
  0
LINE
  5
91
330
1F
100
AcDbEntity
  8
1
  6
CONTINUOUS
 62
     7
100
AcDbLine
 10
-0.5100000000000003
 20
0.0049805235077205
 30
0.0
 11
-0.5100000000000003
 21
-0.2654873944740821
 31
0.0
  0
LINE
  5
92
330
1F
100
AcDbEntity
  8
1
  6
CONTINUOUS
 62
     7
100
AcDbLine
 10
-1.072499999999993
 20
-0.0475000000000003
 30
0.0
 11
-1.072499999999993
 21
-0.2654873944740821
 31
0.0
  0
LINE
  5
93
330
1F
100
AcDbEntity
  8
1
  6
CONTINUOUS
 62
     7
100
AcDbLine
 10
-0.5100000000000003
 20
-0.1404873944740821
 30
0.0
 11
-0.3225000000000002
 21
-0.1404873944740821
 31
0.0
  0
LINE
  5
94
330
1F
100
AcDbEntity
  8
1
  6
CONTINUOUS
 62
     7
100
AcDbLine
 10
-1.072499999999993
 20
-0.1404873944740821
 30
0.0
 11
-1.259999999999993
 21
-0.140487394474082
 31
0.0
  0
INSERT
  5
95
330
1F
100
AcDbEntity
  8
1
  6
CONTINUOUS
 62
     7
100
AcDbBlockReference
  2
LONGARROW
 10
-0.5100000000000003
 20
-0.1404873944740821
 30
0.0
 41
0.0625
 42
0.0625
  0
INSERT
  5
96
330
1F
100
AcDbEntity
  8
1
  6
CONTINUOUS
 62
     7
100
AcDbBlockReference
  2
LONGARROW
 10
-1.072499999999993
 20
-0.1404873944740821
 30
0.0
 41
0.0625
 42
0.0625
 50
180.0
  0
TEXT
  5
97
330
1F
100
AcDbEntity
  8
1
  6
CONTINUOUS
 62
     7
100
AcDbText
 10
-0.8899809662923217
 20
0.7515625000000013
 30
0.0
 40
0.0625
  1
0.536"
  7
ARIAL
 72
     1
 11
-0.7780000000000002
 21
0.7828125000000013
 31
0.0
100
AcDbText
 73
     2
  0
LINE
  5
98
330
1F
100
AcDbEntity
  8
1
  6
CONTINUOUS
 62
     7
100
AcDbLine
 10
-1.045999999999999
 20
1.085453466071434
 30
0.0
 11
-1.045999999999999
 21
0.5875000000000013
 31
0.0
  0
LINE
  5
99
330
1F
100
AcDbEntity
  8
1
  6
CONTINUOUS
 62
     7
100
AcDbLine
 10
-0.5100000000000007
 20
0.7125000000000013
 30
0.0
 11
-1.045999999999999
 21
0.7125000000000014
 31
0.0
  0
INSERT
  5
9A
330
1F
100
AcDbEntity
  8
1
  6
CONTINUOUS
 62
     7
100
AcDbBlockReference
  2
LONGARROW
 10
-0.5100000000000007
 20
0.7125000000000013
 30
0.0
 41
0.0625
 42
0.0625
 50
180.0
  0
INSERT
  5
9B
330
1F
100
AcDbEntity
  8
1
  6
CONTINUOUS
 62
     7
100
AcDbBlockReference
  2
LONGARROW
 10
-1.045999999999999
 20
0.7125000000000013
 30
0.0
 41
0.0625
 42
0.0625
  0
TEXT
  5
9C
330
1F
100
AcDbEntity
  8
1
  6
CONTINUOUS
 62
     7
100
AcDbText
 10
-1.524952422715708
 20
1.056250000000001
 30
0.0
 40
0.0625
  1
0.548"
  7
ARIAL
 72
     1
 11
-1.412971456423387
 21
1.087500000000001
 31
0.0
100
AcDbText
 73
     2
  0
LINE
  5
9D
330
1F
100
AcDbEntity
  8
1
  6
CONTINUOUS
 62
     7
100
AcDbLine
 10
-0.5100000000000007
 20
1.096238511786833
 30
0.0
 11
-0.5100000000000007
 21
0.962500000000001
 31
0.0
  0
LINE
  5
9E
330
1F
100
AcDbEntity
  8
1
  6
CONTINUOUS
 62
     7
100
AcDbLine
 10
-0.5100000000000007
 20
1.087500000000001
 30
0.0
 11
-0.3225000000000007
 21
1.087500000000001
 31
0.0
  0
LINE
  5
9F
330
1F
100
AcDbEntity
  8
1
  6
CONTINUOUS
 62
     7
100
AcDbLine
 10
-1.057499999999985
 20
1.087500000000001
 30
0.0
 11
-1.244999999999985
 21
1.087500000000001
 31
0.0
  0
INSERT
  5
A0
330
1F
100
AcDbEntity
  8
1
  6
CONTINUOUS
 62
     7
100
AcDbBlockReference
  2
LONGARROW
 10
-0.5100000000000007
 20
1.087500000000001
 30
0.0
 41
0.0625
 42
0.0625
  0
INSERT
  5
A1
330
1F
100
AcDbEntity
  8
1
  6
CONTINUOUS
 62
     7
100
AcDbBlockReference
  2
LONGARROW
 10
-1.057499999999985
 20
1.087500000000001
 30
0.0
 41
0.0625
 42
0.0625
 50
180.0
  0
TEXT
  5
A2
330
1F
100
AcDbEntity
  8
1
  6
CONTINUOUS
 62
     7
100
AcDbText
 10
-1.539952422715723
 20
0.5462500000000008
 30
0.0
 40
0.0625
  1
0.563"
  7
ARIAL
 72
     1
 11
-1.427971456423402
 21
0.5775000000000008
 31
0.0
100
AcDbText
 73
     2
  0
LINE
  5
A3
330
1F
100
AcDbEntity
  8
1
  6
CONTINUOUS
 62
     7
100
AcDbLine
 10
-0.5100000000000007
 20
0.6531561237861105
 30
0.0
 11
-0.5100000000000007
 21
0.5770000000000009
 31
0.0
  0
LINE
  5
A4
330
1F
100
AcDbEntity
  8
1
  6
CONTINUOUS
 62
     7
100
AcDbLine
 10
-1.0725
 20
0.6792951584211878
 30
0.0
 11
-1.0725
 21
0.5770000000000009
 31
0.0
  0
LINE
  5
A5
330
1F
100
AcDbEntity
  8
1
  6
CONTINUOUS
 62
     7
100
AcDbLine
 10
-0.5100000000000007
 20
0.5775000000000008
 30
0.0
 11
-0.3225000000000007
 21
0.5775000000000008
 31
0.0
  0
LINE
  5
A6
330
1F
100
AcDbEntity
  8
1
  6
CONTINUOUS
 62
     7
100
AcDbLine
 10
-1.0725
 20
0.5775000000000008
 30
0.0
 11
-1.26
 21
0.5775000000000008
 31
0.0
  0
INSERT
  5
A7
330
1F
100
AcDbEntity
  8
1
  6
CONTINUOUS
 62
     7
100
AcDbBlockReference
  2
LONGARROW
 10
-0.5100000000000007
 20
0.5775000000000008
 30
0.0
 41
0.0625
 42
0.0625
  0
INSERT
  5
A8
330
1F
100
AcDbEntity
  8
1
  6
CONTINUOUS
 62
     7
100
AcDbBlockReference
  2
LONGARROW
 10
-1.0725
 20
0.5775000000000008
 30
0.0
 41
0.0625
 42
0.0625
 50
180.0
  0
TEXT
  5
A9
330
1F
100
AcDbEntity
  8
1
  6
CONTINUOUS
 62
     7
100
AcDbText
 10
-1.524952422715716
 20
0.1362500000000001
 30
0.0
 40
0.0625
  1
0.548"
  7
ARIAL
 72
     1
 11
-1.412971456423395
 21
0.1675000000000001
 31
0.0
100
AcDbText
 73
     2
  0
LINE
  5
AA
330
1F
100
AcDbEntity
  8
1
  6
CONTINUOUS
 62
     7
100
AcDbLine
 10
-0.5100000000000007
 20
0.1675000000000001
 30
0.0
 11
-0.3225000000000007
 21
0.1675
 31
0.0
  0
LINE
  5
AB
330
1F
100
AcDbEntity
  8
1
  6
CONTINUOUS
 62
     7
100
AcDbLine
 10
-1.057499999999993
 20
0.1675000000000001
 30
0.0
 11
-1.244999999999993
 21
0.1675000000000001
 31
0.0
  0
INSERT
  5
AC
330
1F
100
AcDbEntity
  8
1
  6
CONTINUOUS
 62
     7
100
AcDbBlockReference
  2
LONGARROW
 10
-0.5100000000000007
 20
0.1675000000000001
 30
0.0
 41
0.0625
 42
0.0625
  0
INSERT
  5
AD
330
1F
100
AcDbEntity
  8
1
  6
CONTINUOUS
 62
     7
100
AcDbBlockReference
  2
LONGARROW
 10
-1.057499999999993
 20
0.1675000000000001
 30
0.0
 41
0.0625
 42
0.0625
 50
180.0
  0
TEXT
  5
AE
330
1F
100
AcDbEntity
  8
1
  6
CONTINUOUS
 62
     7
100
AcDbText
 10
-1.507452422715717
 20
0.0462500000000003
 30
0.0
 40
0.0625
  1
0.530"
  7
ARIAL
 72
     1
 11
-1.395471456423395
 21
0.0775000000000003
 31
0.0
100
AcDbText
 73
     2
  0
LINE
  5
AF
330
1F
100
AcDbEntity
  8
1
  6
CONTINUOUS
 62
     7
100
AcDbLine
 10
-0.5100000000000007
 20
0.0775000000000003
 30
0.0
 11
-0.3225000000000007
 21
0.0775000000000003
 31
0.0
  0
LINE
  5
B0
330
1F
100
AcDbEntity
  8
1
  6
CONTINUOUS
 62
     7
100
AcDbLine
 10
-1.039999999999994
 20
0.0775000000000003
 30
0.0
 11
-1.227499999999994
 21
0.0775000000000003
 31
0.0
  0
INSERT
  5
B1
330
1F
100
AcDbEntity
  8
1
  6
CONTINUOUS
 62
     7
100
AcDbBlockReference
  2
LONGARROW
 10
-0.5100000000000007
 20
0.0775000000000003
 30
0.0
 41
0.0625
 42
0.0625
  0
INSERT
  5
B2
330
1F
100
AcDbEntity
  8
1
  6
CONTINUOUS
 62
     7
100
AcDbBlockReference
  2
LONGARROW
 10
-1.039999999999994
 20
0.0775000000000003
 30
0.0
 41
0.0625
 42
0.0625
 50
180.0
  0
LINE
  5
B3
330
1F
100
AcDbEntity
  8
1
  6
CONTINUOUS
 62
     7
100
AcDbLine
 10
0.0999999999999943
 20
0.0000000000000187
 30
0.0
 11
0.25
 21
0.0
 31
0.0
  0
TEXT
  5
B4
330
1F
100
AcDbEntity
  8
1
  6
CONTINUOUS
 62
     7
100
AcDbText
 10
0.3059904901310802
 20
-0.03125
 30
0.0
 40
0.0625
  1
0.000"
  7
ARIAL
 72
     1
 11
0.4179714564234019
 21
0.0
 31
0.0
100
AcDbText
 73
     2
  0
LINE
  5
B5
330
1F
100
AcDbEntity
  8
1
  6
CONTINUOUS
 62
     7
100
AcDbLine
 10
0.114999999999994
 20
0.0499999999999998
 30
0.0
 11
0.75
 21
0.0499999999999998
 31
0.0
  0
TEXT
  5
B6
330
1F
100
AcDbEntity
  8
1
  6
CONTINUOUS
 62
     7
100
AcDbText
 10
0.8059904901310801
 20
0.0187499999999998
 30
0.0
 40
0.0625
  1
0.050"
  7
ARIAL
 72
     1
 11
0.9179714564234018
 21
0.0499999999999998
 31
0.0
100
AcDbText
 73
     2
  0
LINE
  5
B7
330
1F
100
AcDbEntity
  8
1
  6
CONTINUOUS
 62
     7
100
AcDbLine
 10
0.0999999999999934
 20
0.1049999999999995
 30
0.0
 11
0.2499999999999999
 21
0.1049999999999995
 31
0.0
  0
TEXT
  5
B8
330
1F
100
AcDbEntity
  8
1
  6
CONTINUOUS
 62
     7
100
AcDbText
 10
0.3059904901310801
 20
0.0737499999999996
 30
0.0
 40
0.0625
  1
0.105"
  7
ARIAL
 72
     1
 11
0.4179714564234018
 21
0.1049999999999995
 31
0.0
100
AcDbText
 73
     2
  0
LINE
  5
B9
330
1F
100
AcDbEntity
  8
1
  6
CONTINUOUS
 62
     7
100
AcDbLine
 10
0.0625
 20
0.2750000000000003
 30
0.0
 11
0.75
 21
0.2750000000000003
 31
0.0
  0
TEXT
  5
BA
330
1F
100
AcDbEntity
  8
1
  6
CONTINUOUS
 62
     7
100
AcDbText
 10
0.8059904901310801
 20
0.2437500000000003
 30
0.0
 40
0.0625
  1
0.275"
  7
ARIAL
 72
     1
 11
0.9179714564234018
 21
0.2750000000000003
 31
0.0
100
AcDbText
 73
     2
  0
LINE
  5
BB
330
1F
100
AcDbEntity
  8
1
  6
CONTINUOUS
 62
     7
100
AcDbLine
 10
0.1150000000000011
 20
0.2299999999999995
 30
0.0
 11
0.25
 21
0.2299999999999995
 31
0.0
  0
TEXT
  5
BC
330
1F
100
AcDbEntity
  8
1
  6
CONTINUOUS
 62
     7
100
AcDbText
 10
0.3059904901310802
 20
0.1987499999999995
 30
0.0
 40
0.0625
  1
0.230"
  7
ARIAL
 72
     1
 11
0.4179714564234019
 21
0.2299999999999995
 31
0.0
100
AcDbText
 73
     2
  0
LINE
  5
BD
330
1F
100
AcDbEntity
  8
1
  6
CONTINUOUS
 62
     7
100
AcDbLine
 10
0.1675000000000004
 20
0.9250000000000007
 30
0.0
 11
0.25
 21
0.9250000000000007
 31
0.0
  0
TEXT
  5
BE
330
1F
100
AcDbEntity
  8
1
  6
CONTINUOUS
 62
     7
100
AcDbText
 10
0.3059904901310802
 20
0.8937500000000007
 30
0.0
 40
0.0625
  1
0.925"
  7
ARIAL
 72
     1
 11
0.4179714564234019
 21
0.9250000000000007
 31
0.0
100
AcDbText
 73
     2
  0
LINE
  5
BF
330
1F
100
AcDbEntity
  8
1
  6
CONTINUOUS
 62
     7
100
AcDbLine
 10
0.1675000000000004
 20
1.025
 30
0.0
 11
0.25
 21
1.025
 31
0.0
  0
TEXT
  5
C0
330
1F
100
AcDbEntity
  8
1
  6
CONTINUOUS
 62
     7
100
AcDbText
 10
0.3059904901310802
 20
0.9937500000000003
 30
0.0
 40
0.0625
  1
1.025"
  7
ARIAL
 72
     1
 11
0.4179714564234019
 21
1.025
 31
0.0
100
AcDbText
 73
     2
  0
LINE
  5
C1
330
1F
100
AcDbEntity
  8
1
  6
CONTINUOUS
 62
     7
100
AcDbLine
 10
0.0999999999999855
 20
1.15
 30
0.0
 11
0.2499999999999998
 21
1.15
 31
0.0
  0
TEXT
  5
C2
330
1F
100
AcDbEntity
  8
1
  6
CONTINUOUS
 62
     7
100
AcDbText
 10
0.30599049013108
 20
1.11875
 30
0.0
 40
0.0625
  1
1.150"
  7
ARIAL
 72
     1
 11
0.4179714564234017
 21
1.15
 31
0.0
100
AcDbText
 73
     2
  0
TEXT
  5
C3
330
1F
100
AcDbEntity
  8
1
  6
CONTINUOUS
 62
     7
100
AcDbText
 10
-0.8769809662923218
 20
0.1765625000000002
 30
0.0
 40
0.0625
  1
0.510"
  7
ARIAL
 72
     1
 11
-0.7650000000000003
 21
0.2078125000000002
 31
0.0
100
AcDbText
 73
     2
  0
LINE
  5
C4
330
1F
100
AcDbEntity
  8
1
  6
CONTINUOUS
 62
     7
100
AcDbLine
 10
-1.019999999999999
 20
0.1375000000000002
 30
0.0
 11
-0.5100000000000007
 21
0.1375000000000002
 31
0.0
  0
INSERT
  5
C5
330
1F
100
AcDbEntity
  8
1
  6
CONTINUOUS
 62
     7
100
AcDbBlockReference
  2
LONGARROW
 10
-1.019999999999999
 20
0.1375000000000002
 30
0.0
 41
0.0625
 42
0.0625
  0
INSERT
  5
C6
330
1F
100
AcDbEntity
  8
1
  6
CONTINUOUS
 62
     7
100
AcDbBlockReference
  2
LONGARROW
 10
-0.5100000000000007
 20
0.1375000000000002
 30
0.0
 41
0.0625
 42
0.0625
 50
180.0
  0
TEXT
  5
C7
330
1F
100
AcDbEntity
  8
1
  6
CONTINUOUS
 62
     7
100
AcDbText
 10
0.5
 20
-0.28125
 30
0.0
 40
0.0625
  1
2x Bevel 0.015 x 45°
  7
ARIAL
 11
0.5
 21
-0.25
 31
0.0
100
AcDbText
 73
     2
  0
INSERT
  5
C8
330
1F
100
AcDbEntity
  8
1
  6
CONTINUOUS
 62
     7
100
AcDbBlockReference
  2
LONGARROW
 10
0.0449999999999942
 20
0.0075000000000092
 30
0.0
 41
0.0625
 42
0.0625
 50
308.5238754616486
  0
LWPOLYLINE
  5
C9
330
1F
100
AcDbEntity
  8
1
  6
CONTINUOUS
 62
     7
100
AcDbPolyline
 90
        3
 70
     0
 43
0.0
 10
0.0449999999999942
 20
0.0075000000000092
 10
0.25
 20
-0.25
 10
0.4375
 20
-0.25
  0
CIRCLE
  5
CA
330
1F
100
AcDbEntity
  8
1
  6
CONTINUOUS
 62
     7
100
AcDbCircle
 10
-0.5100000000000007
 20
-1.144500594651538
 30
0.0
 40
0.51
  0
CIRCLE
  5
CB
330
1F
100
AcDbEntity
  8
1
  6
CONTINUOUS
 62
     7
100
AcDbCircle
 10
-0.5100000000000007
 20
-1.144500594651538
 30
0.0
 40
0.5300000000000001
  0
CIRCLE
  5
CC
330
1F
100
AcDbEntity
  8
1
  6
CONTINUOUS
 62
     7
100
AcDbCircle
 10
-0.5100000000000007
 20
-1.144500594651538
 30
0.0
 40
0.5480000000000001
  0
LINE
  5
CD
330
1F
100
AcDbEntity
  8
1
  6
CONTINUOUS
 62
     7
100
AcDbLine
 10
-0.9840031645463991
 20
-0.8695005946515385
 30
0.0
 11
-1.001267747771009
 21
-0.8695005946515385
 31
0.0
  0
LINE
  5
CE
330
1F
100
AcDbEntity
  8
1
  6
CONTINUOUS
 62
     7
100
AcDbLine
 10
-0.9840031645463991
 20
-1.419500594651538
 30
0.0
 11
-1.001267747771009
 21
-1.419500594651538
 31
0.0
  0
ARC
  5
CF
330
1F
100
AcDbEntity
  8
1
  6
CONTINUOUS
 62
     7
100
AcDbCircle
 10
-0.5100000000000008
 20
-1.144500594651538
 30
0.0
 40
0.5629999999999999
100
AcDbArc
 50
150.7609355436057
 51
209.2390644563943
  0
ARC
  5
D0
330
1F
100
AcDbEntity
  8
1
  6
CONTINUOUS
 62
     7
100
AcDbCircle
 10
-0.5100000000000008
 20
-1.144500594651538
 30
0.0
 40
0.5630000000000001
100
AcDbArc
 50
330.7609355436057
 51
29.23906445639424
  0
LINE
  5
D1
330
1F
100
AcDbEntity
  8
1
  6
CONTINUOUS
 62
     7
100
AcDbLine
 10
-0.0359968354536023
 20
-0.8695005946515385
 30
0.0
 11
-0.0187322522289912
 21
-0.8695005946515385
 31
0.0
  0
LINE
  5
D2
330
1F
100
AcDbEntity
  8
1
  6
CONTINUOUS
 62
     7
100
AcDbLine
 10
-0.0359968354536022
 20
-1.419500594651538
 30
0.0
 11
-0.0187322522289913
 21
-1.419500594651538
 31
0.0
  0
TEXT
  5
D3
330
1F
100
AcDbEntity
  8
1
  6
CONTINUOUS
 62
     7
100
AcDbText
 10
-1.665519473891719
 20
-1.175750594651538
 30
0.0
 40
0.0625
  1
2x 0.550"
  7
ARIAL
 72
     1
 11
-1.501267747771009
 21
-1.144500594651538
 31
0.0
100
AcDbText
 73
     2
  0
LINE
  5
D4
330
1F
100
AcDbEntity
  8
1
  6
CONTINUOUS
 62
     7
100
AcDbLine
 10
-1.063767747771009
 20
-0.8695005946515385
 30
0.0
 11
-1.626267747771009
 21
-0.8695005946515385
 31
0.0
  0
LINE
  5
D5
330
1F
100
AcDbEntity
  8
1
  6
CONTINUOUS
 62
     7
100
AcDbLine
 10
-1.063767747771009
 20
-1.419500594651538
 30
0.0
 11
-1.626267747771009
 21
-1.419500594651538
 31
0.0
  0
LINE
  5
D6
330
1F
100
AcDbEntity
  8
1
  6
CONTINUOUS
 62
     7
100
AcDbLine
 10
-1.501267747771009
 20
-0.8695005946515385
 30
0.0
 11
-1.501267747771009
 21
-1.097625594651538
 31
0.0
  0
LINE
  5
D7
330
1F
100
AcDbEntity
  8
1
  6
CONTINUOUS
 62
     7
100
AcDbLine
 10
-1.501267747771009
 20
-1.419500594651538
 30
0.0
 11
-1.501267747771009
 21
-1.191375594651538
 31
0.0
  0
INSERT
  5
D8
330
1F
100
AcDbEntity
  8
1
  6
CONTINUOUS
 62
     7
100
AcDbBlockReference
  2
LONGARROW
 10
-1.501267747771009
 20
-0.8695005946515385
 30
0.0
 41
0.0625
 42
0.0625
 50
270.0
  0
INSERT
  5
D9
330
1F
100
AcDbEntity
  8
1
  6
CONTINUOUS
 62
     7
100
AcDbBlockReference
  2
LONGARROW
 10
-1.501267747771009
 20
-1.419500594651538
 30
0.0
 41
0.0625
 42
0.0625
 50
90.00000000000005
  0
LWPOLYLINE
  5
DA
330
1F
100
AcDbEntity
  8
1
  6
CONTINUOUS
 62
     7
100
AcDbPolyline
 90
        8
 70
     1
 43
0.0
 10
-1.125000000000001
 20
-1.647500594651535
 10
-1.050000000000001
 20
-1.722500594651535
 10
0.0299999999999998
 20
-1.722500594651536
 10
0.105
 20
-1.647500594651535
 10
0.105
 20
-0.6415005946515393
 10
0.0299999999999998
 20
-0.5665005946515401
 10
-1.050000000000001
 20
-0.5665005946515401
 10
-1.125000000000001
 20
-0.6415005946515393
  0
CIRCLE
  5
DB
330
1F
100
AcDbEntity
  8
1
  6
CONTINUOUS
 62
     7
100
AcDbCircle
 10
-0.9860000000000002
 20
-0.668500594651535
 30
0.0
 40
0.0430000000000002
  0
CIRCLE
  5
DC
330
1F
100
AcDbEntity
  8
1
  6
CONTINUOUS
 62
     7
100
AcDbCircle
 10
-0.9859999999999999
 20
-1.620500594651534
 30
0.0
 40
0.0430000000000002
  0
CIRCLE
  5
DD
330
1F
100
AcDbEntity
  8
1
  6
CONTINUOUS
 62
     7
100
AcDbCircle
 10
-0.0340000000000008
 20
-1.620500594651535
 30
0.0
 40
0.0430000000000002
  0
CIRCLE
  5
DE
330
1F
100
AcDbEntity
  8
1
  6
CONTINUOUS
 62
     7
100
AcDbCircle
 10
-0.0340000000000003
 20
-0.668500594651535
 30
0.0
 40
0.0430000000000002
  0
LWPOLYLINE
  5
DF
330
1F
100
AcDbEntity
  8
1
  6
CONTINUOUS
 62
     7
100
AcDbPolyline
 90
        4
 70
     1
 43
0.0
 10
0.5
 20
-1.0
 10
1.999999999999999
 20
-1.0
 10
1.999999999999999
 20
-1.75
 10
0.5
 20
-1.75
  0
TEXT
  5
E0
330
1F
100
AcDbEntity
  8
1
  6
CONTINUOUS
 62
     7
100
AcDbText
 10
0.5194636844098568
 20
-1.25
 30
0.0
 40
0.125
  1
Polarized Target Cup
  7
ARIAL
 72
     1
 11
1.25
 21
-1.25
 31
0.0
100
AcDbText
  0
LINE
  5
E1
330
1F
100
AcDbEntity
  8
1
  6
CONTINUOUS
 62
     7
100
AcDbLine
 10
1.249999999999999
 20
-1.375
 30
0.0
 11
1.249999999999999
 21
-1.75
 31
0.0
  0
TEXT
  5
E2
330
1F
100
AcDbEntity
  8
1
  6
CONTINUOUS
 62
     7
100
AcDbText
 10
0.8749999999999998
 20
-1.45
 30
0.0
 40
0.075
  1

  7
ARIAL
 72
     1
 11
0.8749999999999996
 21
-1.375
 31
0.0
100
AcDbText
 73
     3
  0
TEXT
  5
E3
330
1F
100
AcDbEntity
  8
1
  6
CONTINUOUS
 62
     7
100
AcDbText
 10
0.7521453313529491
 20
-1.5625
 30
0.0
 40
0.075
  1
Rev 1
  7
ARIAL
 72
     1
 11
0.8749999999999996
 21
-1.4875
 31
0.0
100
AcDbText
 73
     3
  0
TEXT
  5
E4
330
1F
100
AcDbEntity
  8
1
  6
CONTINUOUS
 62
     7
100
AcDbText
 10
0.6109429094940424
 20
-1.675
 30
0.0
 40
0.075
  1
02 Mar 2001
  7
ARIAL
 72
     1
 11
0.8749999999999994
 21
-1.6
 31
0.0
100
AcDbText
 73
     3
  0
LINE
  5
E5
330
1F
100
AcDbEntity
  8
1
  6
CONTINUOUS
 62
     7
100
AcDbLine
 10
1.249999999999999
 20
-1.375
 30
0.0
 11
0.5
 21
-1.375
 31
0.0
  0
LINE
  5
E6
330
1F
100
AcDbEntity
  8
1
  6
CONTINUOUS
 62
     7
100
AcDbLine
 10
1.249999999999999
 20
-1.375
 30
0.0
 11
1.999999999999999
 21
-1.375
 31
0.0
  0
TEXT
  5
E7
330
1F
100
AcDbEntity
  8
1
  6
CONTINUOUS
 62
     7
100
AcDbText
 10
1.624999999999999
 20
-1.45
 30
0.0
 40
0.075
  1

  7
ARIAL
 72
     1
 11
1.624999999999999
 21
-1.375
 31
0.0
100
AcDbText
 73
     3
  0
TEXT
  5
E8
330
1F
100
AcDbEntity
  8
1
  6
CONTINUOUS
 62
     7
100
AcDbText
 10
1.371401383541523
 20
-1.5625
 30
0.0
 40
0.075
  1
Paul McKee
  7
ARIAL
 72
     1
 11
1.624999999999999
 21
-1.4875
 31
0.0
100
AcDbText
 73
     3
  0
TEXT
  5
E9
330
1F
100
AcDbEntity
  8
1
  6
CONTINUOUS
 62
     7
100
AcDbText
 10
0.7512086045268244
 20
-0.915394017702107
 30
0.0
 40
0.1
  1
MATL: Kel-F
  7
ARIAL
100
AcDbText
  0
ENDSEC
  0
SECTION
  2
OBJECTS
  0
DICTIONARY
  5
C
330
0
100
AcDbDictionary
  3
ACAD_GROUP
350
D
  3
ACAD_PLOTSTYLENAME
350
E
  3
ACAD_MLINESTYLE
350
17
  3
ACAD_PLOTSETTINGS
350
19
  3
ACAD_LAYOUT
350
1A
  3
ACDBHEADERROUNDTRIPXREC
350
EA
  0
DICTIONARY
  5
10D
330
1F
100
AcDbDictionary
280
     1
  3
ACAD_LAYOUTSELFREF
360
10E
  0
DICTIONARY
  5
10B
330
1B
100
AcDbDictionary
280
     1
  3
ACAD_LAYOUTSELFREF
360
10C
  0
DICTIONARY
  5
D
102
{ACAD_REACTORS
330
C
102
}
330
C
100
AcDbDictionary
  0
ACDBDICTIONARYWDFLT
  5
E
102
{ACAD_REACTORS
330
C
102
}
330
C
100
AcDbDictionary
281
     1
  3
Normal
350
F
100
AcDbDictionaryWithDefault
340
F
  0
DICTIONARY
  5
17
102
{ACAD_REACTORS
330
C
102
}
330
C
100
AcDbDictionary
  3
STANDARD
350
18
  0
DICTIONARY
  5
19
102
{ACAD_REACTORS
330
C
102
}
330
C
100
AcDbDictionary
  0
DICTIONARY
  5
1A
102
{ACAD_REACTORS
330
C
102
}
330
C
100
AcDbDictionary
  0
DICTIONARY
  5
EA
102
{ACAD_REACTORS
330
C
102
}
330
C
100
AcDbDictionary
  3
TSTACKALIGN
350
EB
  3
TSTACKSIZE
350
EC
  3
HYPERLINKBASE
350
ED
  3
STYLESHEET
350
EE
  3
LAYOUTDICT
350
EF
  3
PLOTSETDICT
350
F0
  3
PLOTSTYLNAMDICT
350
F1
  3
LWETCUNION
350
F2
  3
INSUNITS
350
F3
  3
CEPSNTYPE
350
F4
  3
FINGERPRINTGUID
350
F5
  3
VERSIONGUID
350
F6
  3
PSVPSCALE
350
F7
  3
DIMSTYLEDATA
350
F8
  3
PUCSORTHOREF
350
F9
  3
PUCSORTHOVIEW
350
FA
  3
PUCSBASE
350
FB
  3
PUCSORGTOP
350
FC
  3
PUCSORGBOTTOM
350
FD
  3
PUCSORGLEFT
350
FE
  3
PUCSORGRIGHT
350
FF
  3
PUCSORGFRONT
350
100
  3
PUCSORGBACK
350
101
  3
UCSORTHOREF
350
102
  3
UCSORTHOVIEW
350
103
  3
UCSBASE
350
104
  3
UCSORGTOP
350
105
  3
UCSORGBOTTOM
350
106
  3
UCSORGLEFT
350
107
  3
UCSORGRIGHT
350
108
  3
UCSORGFRONT
350
109
  3
UCSORGBACK
350
10A
  0
XRECORD
  5
10E
102
{ACAD_REACTORS
330
10D
102
}
330
10D
100
AcDbXrecord
340
1F
  0
XRECORD
  5
10C
102
{ACAD_REACTORS
330
10B
102
}
330
10B
100
AcDbXrecord
340
1B
  0
ACDBPLACEHOLDER
  5
F
102
{ACAD_REACTORS
330
E
102
}
330
E
100
AcDbPlaceHolder
280
     0
  0
MLINESTYLE
  5
18
102
{ACAD_REACTORS
330
17
102
}
330
17
100
AcDbMlineStyle
  2
STANDARD
 70
     0
  3

 62
   256
 51
90.0
 52
90.0
 71
     2
 49
0.5
 62
   256
  6
BYLAYER
 49
-0.5
 62
   256
  6
BYLAYER
  0
XRECORD
  5
EB
102
{ACAD_REACTORS
330
EA
102
}
330
EA
100
AcDbXrecord
 90
        1
  0
XRECORD
  5
EC
102
{ACAD_REACTORS
330
EA
102
}
330
EA
100
AcDbXrecord
 90
       70
  0
XRECORD
  5
ED
102
{ACAD_REACTORS
330
EA
102
}
330
EA
100
AcDbXrecord
  1

  0
XRECORD
  5
EE
102
{ACAD_REACTORS
330
EA
102
}
330
EA
100
AcDbXrecord
  1

  0
XRECORD
  5
EF
102
{ACAD_REACTORS
330
EA
102
}
330
EA
100
AcDbXrecord
340
1A
  0
XRECORD
  5
F0
102
{ACAD_REACTORS
330
EA
102
}
330
EA
100
AcDbXrecord
340
19
  0
XRECORD
  5
F1
102
{ACAD_REACTORS
330
EA
102
}
330
EA
100
AcDbXrecord
340
E
  0
XRECORD
  5
F2
102
{ACAD_REACTORS
330
EA
102
}
330
EA
100
AcDbXrecord
 90
    10781
  0
XRECORD
  5
F3
102
{ACAD_REACTORS
330
EA
102
}
330
EA
100
AcDbXrecord
 90
        0
  0
XRECORD
  5
F4
102
{ACAD_REACTORS
330
EA
102
}
330
EA
100
AcDbXrecord
 90
        0
  0
XRECORD
  5
F5
102
{ACAD_REACTORS
330
EA
102
}
330
EA
100
AcDbXrecord
  1
{10600CC9-7B14-48FA-AFA6-BF83AAD81FF6}
  0
XRECORD
  5
F6
102
{ACAD_REACTORS
330
EA
102
}
330
EA
100
AcDbXrecord
  1
{FD892C6E-E002-4F1E-ADF9-DDF979014D10}
  0
XRECORD
  5
F7
102
{ACAD_REACTORS
330
EA
102
}
330
EA
100
AcDbXrecord
 40
0.0
  0
XRECORD
  5
F8
102
{ACAD_REACTORS
330
EA
102
}
330
EA
100
AcDbXrecord
1000
DSTYLE
1002
{
1070
   277
 70
     4
1002
}
  0
XRECORD
  5
F9
102
{ACAD_REACTORS
330
EA
102
}
330
EA
100
AcDbXrecord
340
0
  0
XRECORD
  5
FA
102
{ACAD_REACTORS
330
EA
102
}
330
EA
100
AcDbXrecord
 70
     0
  0
XRECORD
  5
FB
102
{ACAD_REACTORS
330
EA
102
}
330
EA
100
AcDbXrecord
340
0
  0
XRECORD
  5
FC
102
{ACAD_REACTORS
330
EA
102
}
330
EA
100
AcDbXrecord
 10
0.0
 20
0.0
 30
0.0
  0
XRECORD
  5
FD
102
{ACAD_REACTORS
330
EA
102
}
330
EA
100
AcDbXrecord
 10
0.0
 20
0.0
 30
0.0
  0
XRECORD
  5
FE
102
{ACAD_REACTORS
330
EA
102
}
330
EA
100
AcDbXrecord
 10
0.0
 20
0.0
 30
0.0
  0
XRECORD
  5
FF
102
{ACAD_REACTORS
330
EA
102
}
330
EA
100
AcDbXrecord
 10
0.0
 20
0.0
 30
0.0
  0
XRECORD
  5
100
102
{ACAD_REACTORS
330
EA
102
}
330
EA
100
AcDbXrecord
 10
0.0
 20
0.0
 30
0.0
  0
XRECORD
  5
101
102
{ACAD_REACTORS
330
EA
102
}
330
EA
100
AcDbXrecord
 10
0.0
 20
0.0
 30
0.0
  0
XRECORD
  5
102
102
{ACAD_REACTORS
330
EA
102
}
330
EA
100
AcDbXrecord
340
0
  0
XRECORD
  5
103
102
{ACAD_REACTORS
330
EA
102
}
330
EA
100
AcDbXrecord
 70
     0
  0
XRECORD
  5
104
102
{ACAD_REACTORS
330
EA
102
}
330
EA
100
AcDbXrecord
340
0
  0
XRECORD
  5
105
102
{ACAD_REACTORS
330
EA
102
}
330
EA
100
AcDbXrecord
 10
0.0
 20
0.0
 30
0.0
  0
XRECORD
  5
106
102
{ACAD_REACTORS
330
EA
102
}
330
EA
100
AcDbXrecord
 10
0.0
 20
0.0
 30
0.0
  0
XRECORD
  5
107
102
{ACAD_REACTORS
330
EA
102
}
330
EA
100
AcDbXrecord
 10
0.0
 20
0.0
 30
0.0
  0
XRECORD
  5
108
102
{ACAD_REACTORS
330
EA
102
}
330
EA
100
AcDbXrecord
 10
0.0
 20
0.0
 30
0.0
  0
XRECORD
  5
109
102
{ACAD_REACTORS
330
EA
102
}
330
EA
100
AcDbXrecord
 10
0.0
 20
0.0
 30
0.0
  0
XRECORD
  5
10A
102
{ACAD_REACTORS
330
EA
102
}
330
EA
100
AcDbXrecord
 10
0.0
 20
0.0
 30
0.0
  0
ENDSEC
  0
EOF
