  0
SECTION
  2
HEADER
  9
$ACADVER
  1
AC1014
  9
$ACADMAINTVER
 70
     6
  9
$DWGCODEPAGE
  3
ANSI_1252
  9
$INSBASE
 10
0.0
 20
0.0
 30
0.0
  9
$EXTMIN
 10
-14.0258587648093
 20
-8.90252548379065
 30
-0.00000001
  9
$EXTMAX
 10
9.850136225977507
 20
5.381715838339553
 30
0.00000001
  9
$LIMMIN
 10
-25.96934552599057
 20
-30.9207794399329
  9
$LIMMAX
 10
17.39173151937148
 20
25.1885562428347
  9
$ORTHOMODE
 70
     0
  9
$REGENMODE
 70
     1
  9
$FILLMODE
 70
     1
  9
$QTEXTMODE
 70
     0
  9
$MIRRTEXT
 70
     1
  9
$DRAGMODE
 70
     2
  9
$LTSCALE
 40
1.0
  9
$OSMODE
 70
     0
  9
$ATTMODE
 70
     1
  9
$TEXTSIZE
 40
17.84756209236776
  9
$TRACEWID
 40
0.05
  9
$TEXTSTYLE
  7
STANDARD
  9
$CLAYER
  8
0
  9
$CELTYPE
  6
BYLAYER
  9
$CECOLOR
 62
   256
  9
$CELTSCALE
 40
1.0
  9
$DELOBJ
 70
     1
  9
$DISPSILH
 70
     0
  9
$DIMSCALE
 40
1.0
  9
$DIMASZ
 40
0.18
  9
$DIMEXO
 40
0.0625
  9
$DIMDLI
 40
0.38
  9
$DIMRND
 40
0.0
  9
$DIMDLE
 40
0.0
  9
$DIMEXE
 40
0.18
  9
$DIMTP
 40
0.0
  9
$DIMTM
 40
0.0
  9
$DIMTXT
 40
0.6374129318702773
  9
$DIMCEN
 40
0.09
  9
$DIMTSZ
 40
0.0
  9
$DIMTOL
 70
     0
  9
$DIMLIM
 70
     0
  9
$DIMTIH
 70
     1
  9
$DIMTOH
 70
     1
  9
$DIMSE1
 70
     0
  9
$DIMSE2
 70
     0
  9
$DIMTAD
 70
     0
  9
$DIMZIN
 70
     0
  9
$DIMBLK
  1

  9
$DIMASO
 70
     1
  9
$DIMSHO
 70
     1
  9
$DIMPOST
  1

  9
$DIMAPOST
  1

  9
$DIMALT
 70
     0
  9
$DIMALTD
 70
     2
  9
$DIMALTF
 40
25.4
  9
$DIMLFAC
 40
1.0
  9
$DIMTOFL
 70
     0
  9
$DIMTVP
 40
0.0
  9
$DIMTIX
 70
     0
  9
$DIMSOXD
 70
     0
  9
$DIMSAH
 70
     0
  9
$DIMBLK1
  1

  9
$DIMBLK2
  1

  9
$DIMSTYLE
  2
STANDARD
  9
$DIMCLRD
 70
     0
  9
$DIMCLRE
 70
     0
  9
$DIMCLRT
 70
     0
  9
$DIMTFAC
 40
1.0
  9
$DIMGAP
 40
0.09
  9
$DIMJUST
 70
     0
  9
$DIMSD1
 70
     0
  9
$DIMSD2
 70
     0
  9
$DIMTOLJ
 70
     1
  9
$DIMTZIN
 70
     0
  9
$DIMALTZ
 70
     0
  9
$DIMALTTZ
 70
     0
  9
$DIMFIT
 70
     3
  9
$DIMUPT
 70
     0
  9
$DIMUNIT
 70
     4
  9
$DIMDEC
 70
     4
  9
$DIMTDEC
 70
     4
  9
$DIMALTU
 70
     2
  9
$DIMALTTD
 70
     2
  9
$DIMTXSTY
  7
STANDARD
  9
$DIMAUNIT
 70
     1
  9
$LUNITS
 70
     2
  9
$LUPREC
 70
     4
  9
$SKETCHINC
 40
0.1
  9
$FILLETRAD
 40
2.0
  9
$AUNITS
 70
     0
  9
$AUPREC
 70
     0
  9
$MENU
  1
.
  9
$ELEVATION
 40
0.0
  9
$PELEVATION
 40
0.0
  9
$THICKNESS
 40
0.0
  9
$LIMCHECK
 70
     0
  9
$BLIPMODE
 70
     0
  9
$CHAMFERA
 40
0.25
  9
$CHAMFERB
 40
0.25
  9
$CHAMFERC
 40
0.0
  9
$CHAMFERD
 40
0.0
  9
$SKPOLY
 70
     0
  9
$TDCREATE
 40
2452349.426019329
  9
$TDUPDATE
 40
2311955.477601296
  9
$TDINDWG
 40
0.0000059144
  9
$TDUSRTIMER
 40
0.0000059144
  9
$USRTIMER
 70
     1
  9
$ANGBASE
 50
0.0
  9
$ANGDIR
 70
     0
  9
$PDMODE
 70
     0
  9
$PDSIZE
 40
0.0
  9
$PLINEWID
 40
0.0
  9
$COORDS
 70
     0
  9
$SPLFRAME
 70
     0
  9
$SPLINETYPE
 70
     6
  9
$SPLINESEGS
 70
     8
  9
$ATTDIA
 70
     0
  9
$ATTREQ
 70
     1
  9
$HANDLING
 70
 12289
  9
$HANDSEED
  5
3DF
  9
$SURFTAB1
 70
     6
  9
$SURFTAB2
 70
     6
  9
$SURFTYPE
 70
     6
  9
$SURFU
 70
     6
  9
$SURFV
 70
     6
  9
$UCSNAME
  2

  9
$UCSORG
 10
0.0
 20
0.0
 30
0.0
  9
$UCSXDIR
 10
1.0
 20
0.0
 30
0.0
  9
$UCSYDIR
 10
0.0
 20
1.0
 30
0.0
  9
$PUCSNAME
  2

  9
$PUCSORG
 10
0.0
 20
0.0
 30
0.0
  9
$PUCSXDIR
 10
1.0
 20
0.0
 30
0.0
  9
$PUCSYDIR
 10
0.0
 20
1.0
 30
0.0
  9
$USERI1
 70
     0
  9
$USERI2
 70
     0
  9
$USERI3
 70
     0
  9
$USERI4
 70
     0
  9
$USERI5
 70
     0
  9
$USERR1
 40
0.0
  9
$USERR2
 40
0.0
  9
$USERR3
 40
0.0
  9
$USERR4
 40
0.0
  9
$USERR5
 40
0.0
  9
$WORLDVIEW
 70
     1
  9
$SHADEDGE
 70
     3
  9
$SHADEDIF
 70
    70
  9
$TILEMODE
 70
     1
  9
$MAXACTVP
 70
    64
  9
$PINSBASE
 10
0.0
 20
0.0
 30
0.0
  9
$PLIMCHECK
 70
     0
  9
$PEXTMIN
 10
1.000000000000000E+20
 20
1.000000000000000E+20
 30
1.000000000000000E+20
  9
$PEXTMAX
 10
-1.000000000000000E+20
 20
-1.000000000000000E+20
 30
-1.000000000000000E+20
  9
$PLIMMIN
 10
0.0
 20
0.0
  9
$PLIMMAX
 10
12.0
 20
9.0
  9
$UNITMODE
 70
     0
  9
$VISRETAIN
 70
     1
  9
$PLINEGEN
 70
     0
  9
$PSLTSCALE
 70
     1
  9
$TREEDEPTH
 70
  3020
  9
$PICKSTYLE
 70
     1
  9
$CMLSTYLE
  2
STANDARD
  9
$CMLJUST
 70
     0
  9
$CMLSCALE
 40
1.0
  9
$PROXYGRAPHICS
 70
     1
  9
$MEASUREMENT
 70
     0
  0
ENDSEC
  0
SECTION
  2
CLASSES
  0
CLASS
  1
ACDBDICTIONARYWDFLT
  2
AcDbDictionaryWithDefault
  3
AutoCAD 2000
 90
        0
280
     0
281
     0
  0
CLASS
  1
ACDBPLACEHOLDER
  2
AcDbPlaceHolder
  3
AutoCAD 2000
 90
        0
280
     0
281
     0
  0
CLASS
  1
LAYOUT
  2
AcDbLayout
  3
AutoCAD 2000
 90
        0
280
     0
281
     0
  0
CLASS
  1
LONG_TRANSACTION
  2
AcDbLongTransaction
  3
AutoCAD 2000
 90
        0
280
     0
281
     0
  0
CLASS
  1
LWPOLYLINE
  2
AcDbPolyline
  3
AutoCAD 2000
 90
        0
280
     0
281
     1
  0
CLASS
  1
HATCH
  2
AcDbHatch
  3
AutoCAD 2000
 90
        0
280
     0
281
     1
  0
CLASS
  1
XRECORD
  2
AcDbXrecord
  3
AutoCAD 2000
 90
        0
280
     0
281
     0
  0
ENDSEC
  0
SECTION
  2
TABLES
  0
TABLE
  2
VPORT
  5
8
330
0
100
AcDbSymbolTable
 70
     1
  0
VPORT
  5
13
330
8
100
AcDbSymbolTableRecord
100
AcDbViewportTableRecord
  2
*ACTIVE
 70
     0
 10
0.0
 20
0.0
 11
1.0
 21
1.0
 12
-17.27347976630483
 22
-18.32650131851555
 13
0.0
 23
0.0
 14
1.0
 24
1.0
 15
0.0
 25
0.0
 16
0.0
 26
0.0
 36
1.0
 17
0.0
 27
0.0
 37
0.0
 40
25.1885562428347
 41
0.690461626768261
 42
50.0
 43
0.0
 44
0.0
 50
0.0
 51
0.0
 71
     0
 72
   100
 73
     1
 74
     1
 75
     0
 76
     0
 77
     0
 78
     0
  0
ENDTAB
  0
TABLE
  2
LTYPE
  5
5
330
0
100
AcDbSymbolTable
 70
    40
  0
LTYPE
  5
14
330
5
100
AcDbSymbolTableRecord
100
AcDbLinetypeTableRecord
  2
BYBLOCK
 70
     0
  3

 72
    65
 73
     0
 40
0.0
  0
LTYPE
  5
15
330
5
100
AcDbSymbolTableRecord
100
AcDbLinetypeTableRecord
  2
BYLAYER
 70
     0
  3

 72
    65
 73
     0
 40
0.0
  0
LTYPE
  5
16
330
5
100
AcDbSymbolTableRecord
100
AcDbLinetypeTableRecord
  2
CONTINUOUS
 70
     0
  3
Solid line
 72
    65
 73
     0
 40
0.0
  0
LTYPE
  5
28
330
5
100
AcDbSymbolTableRecord
100
AcDbLinetypeTableRecord
  2
HIDDEN
 70
     0
  3
_ _ _ _ _ _ _ _ _ _ _ _ _ _ 
 72
    65
 73
     2
 40
0.375
 49
0.25
 74
     0
 49
-0.125
 74
     0
  0
LTYPE
  5
29
330
5
100
AcDbSymbolTableRecord
100
AcDbLinetypeTableRecord
  2
DASHED
 70
     0
  3
__ __ __ __ __ __ __ __ __ 
 72
    65
 73
     2
 40
0.75
 49
0.5
 74
     0
 49
-0.25
 74
     0
  0
LTYPE
  5
2A
330
5
100
AcDbSymbolTableRecord
100
AcDbLinetypeTableRecord
  2
CENTER
 70
     0
  3
____ _ ____ _ ____ _ ____ _ 
 72
    65
 73
     4
 40
2.0
 49
1.25
 74
     0
 49
-0.25
 74
     0
 49
0.25
 74
     0
 49
-0.25
 74
     0
  0
LTYPE
  5
2B
330
5
100
AcDbSymbolTableRecord
100
AcDbLinetypeTableRecord
  2
PHANTOM
 70
     0
  3
_____ _ _ _____ _ _ _____ _ _ 
 72
    65
 73
     6
 40
2.5
 49
1.25
 74
     0
 49
-0.25
 74
     0
 49
0.25
 74
     0
 49
-0.25
 74
     0
 49
0.25
 74
     0
 49
-0.25
 74
     0
  0
LTYPE
  5
2C
330
5
100
AcDbSymbolTableRecord
100
AcDbLinetypeTableRecord
  2
DOT
 70
     0
  3
...........................
 72
    65
 73
     2
 40
0.25
 49
0.0
 74
     0
 49
-0.25
 74
     0
  0
LTYPE
  5
2D
330
5
100
AcDbSymbolTableRecord
100
AcDbLinetypeTableRecord
  2
DASHDOT
 70
     0
  3
__ . __ . __ . __ . __ . __ . 
 72
    65
 73
     4
 40
1.0
 49
0.5
 74
     0
 49
-0.25
 74
     0
 49
0.0
 74
     0
 49
-0.25
 74
     0
  0
LTYPE
  5
2E
330
5
100
AcDbSymbolTableRecord
100
AcDbLinetypeTableRecord
  2
DIVIDE
 70
     0
  3
__ . . __ . . __ . . __ . . 
 72
    65
 73
     6
 40
1.25
 49
0.5
 74
     0
 49
-0.25
 74
     0
 49
0.0
 74
     0
 49
-0.25
 74
     0
 49
0.0
 74
     0
 49
-0.25
 74
     0
  0
LTYPE
  5
2F
330
5
100
AcDbSymbolTableRecord
100
AcDbLinetypeTableRecord
  2
BORDER
 70
     0
  3
__ __ . __ __ . __ __ . __ __ .
 72
    65
 73
     6
 40
1.75
 49
0.5
 74
     0
 49
-0.25
 74
     0
 49
0.5
 74
     0
 49
-0.25
 74
     0
 49
0.0
 74
     0
 49
-0.25
 74
     0
  0
LTYPE
  5
30
330
5
100
AcDbSymbolTableRecord
100
AcDbLinetypeTableRecord
  2
BORDER2
 70
     0
  3
Border (.5x) __.__.__.__.__.__.
 72
    65
 73
     6
 40
0.875
 49
0.25
 74
     0
 49
-0.125
 74
     0
 49
0.25
 74
     0
 49
-0.125
 74
     0
 49
0.0
 74
     0
 49
-0.125
 74
     0
  0
LTYPE
  5
31
330
5
100
AcDbSymbolTableRecord
100
AcDbLinetypeTableRecord
  2
BORDERX2
 70
     0
  3
Border (2x) ____  ____  .  ____
 72
    65
 73
     6
 40
3.5
 49
1.0
 74
     0
 49
-0.5
 74
     0
 49
1.0
 74
     0
 49
-0.5
 74
     0
 49
0.0
 74
     0
 49
-0.5
 74
     0
  0
LTYPE
  5
32
330
5
100
AcDbSymbolTableRecord
100
AcDbLinetypeTableRecord
  2
CENTER2
 70
     0
  3
Center (.5x) ___ _ ___ _ ___ _ 
 72
    65
 73
     4
 40
1.125
 49
0.7500000000000001
 74
     0
 49
-0.125
 74
     0
 49
0.125
 74
     0
 49
-0.125
 74
     0
  0
LTYPE
  5
33
330
5
100
AcDbSymbolTableRecord
100
AcDbLinetypeTableRecord
  2
CENTERX2
 70
     0
  3
Center (2x) ________  __  _____
 72
    65
 73
     4
 40
4.0
 49
2.5
 74
     0
 49
-0.5
 74
     0
 49
0.5
 74
     0
 49
-0.5
 74
     0
  0
LTYPE
  5
34
330
5
100
AcDbSymbolTableRecord
100
AcDbLinetypeTableRecord
  2
DASHDOT2
 70
     0
  3
Dash dot (.5x) _._._._._._._._.
 72
    65
 73
     4
 40
0.5
 49
0.25
 74
     0
 49
-0.125
 74
     0
 49
0.0
 74
     0
 49
-0.125
 74
     0
  0
LTYPE
  5
35
330
5
100
AcDbSymbolTableRecord
100
AcDbLinetypeTableRecord
  2
DASHDOTX2
 70
     0
  3
Dash dot (2x) ____  .  ____  . 
 72
    65
 73
     4
 40
2.0
 49
1.0
 74
     0
 49
-0.5
 74
     0
 49
0.0
 74
     0
 49
-0.5
 74
     0
  0
LTYPE
  5
36
330
5
100
AcDbSymbolTableRecord
100
AcDbLinetypeTableRecord
  2
DASHED2
 70
     0
  3
Dashed (.5x) _ _ _ _ _ _ _ _ _ 
 72
    65
 73
     2
 40
0.375
 49
0.25
 74
     0
 49
-0.125
 74
     0
  0
LTYPE
  5
37
330
5
100
AcDbSymbolTableRecord
100
AcDbLinetypeTableRecord
  2
DASHEDX2
 70
     0
  3
Dashed (2x) ____  ____  ____  _
 72
    65
 73
     2
 40
1.5
 49
1.0
 74
     0
 49
-0.5
 74
     0
  0
LTYPE
  5
38
330
5
100
AcDbSymbolTableRecord
100
AcDbLinetypeTableRecord
  2
DIVIDE2
 70
     0
  3
Divide (.5x) __..__..__..__..__
 72
    65
 73
     6
 40
0.625
 49
0.25
 74
     0
 49
-0.125
 74
     0
 49
0.0
 74
     0
 49
-0.125
 74
     0
 49
0.0
 74
     0
 49
-0.125
 74
     0
  0
LTYPE
  5
39
330
5
100
AcDbSymbolTableRecord
100
AcDbLinetypeTableRecord
  2
DIVIDEX2
 70
     0
  3
Divide (2x) ________  .  .  ___
 72
    65
 73
     6
 40
2.5
 49
1.0
 74
     0
 49
-0.5
 74
     0
 49
0.0
 74
     0
 49
-0.5
 74
     0
 49
0.0
 74
     0
 49
-0.5
 74
     0
  0
LTYPE
  5
3A
330
5
100
AcDbSymbolTableRecord
100
AcDbLinetypeTableRecord
  2
DOT2
 70
     0
  3
Dot (.5x) .....................
 72
    65
 73
     2
 40
0.125
 49
0.0
 74
     0
 49
-0.125
 74
     0
  0
LTYPE
  5
3B
330
5
100
AcDbSymbolTableRecord
100
AcDbLinetypeTableRecord
  2
DOTX2
 70
     0
  3
Dot (2x) .  .  .  .  .  .  .  .
 72
    65
 73
     2
 40
0.5
 49
0.0
 74
     0
 49
-0.5
 74
     0
  0
LTYPE
  5
3C
330
5
100
AcDbSymbolTableRecord
100
AcDbLinetypeTableRecord
  2
HIDDEN2
 70
     0
  3
Hidden (.5x) _ _ _ _ _ _ _ _ _ 
 72
    65
 73
     2
 40
0.1875
 49
0.125
 74
     0
 49
-0.0625
 74
     0
  0
LTYPE
  5
3D
330
5
100
AcDbSymbolTableRecord
100
AcDbLinetypeTableRecord
  2
HIDDENX2
 70
     0
  3
Hidden (2x) ____ ____ ____ ____
 72
    65
 73
     2
 40
0.75
 49
0.5
 74
     0
 49
-0.25
 74
     0
  0
LTYPE
  5
3E
330
5
100
AcDbSymbolTableRecord
100
AcDbLinetypeTableRecord
  2
PHANTOM2
 70
     0
  3
Phantom (.5x) ___ _ _ ___ _ _ _
 72
    65
 73
     6
 40
1.25
 49
0.6250000000000001
 74
     0
 49
-0.125
 74
     0
 49
0.125
 74
     0
 49
-0.125
 74
     0
 49
0.125
 74
     0
 49
-0.125
 74
     0
  0
LTYPE
  5
3F
330
5
100
AcDbSymbolTableRecord
100
AcDbLinetypeTableRecord
  2
PHANTOMX2
 70
     0
  3
Phantom (2x) ____________    __
 72
    65
 73
     6
 40
5.0
 49
2.5
 74
     0
 49
-0.5
 74
     0
 49
0.5
 74
     0
 49
-0.5
 74
     0
 49
0.5
 74
     0
 49
-0.5
 74
     0
  0
LTYPE
  5
40
330
5
100
AcDbSymbolTableRecord
100
AcDbLinetypeTableRecord
  2
DOTS
 70
     0
  3
Dots - - - - - - - - - - - - - 
 72
    65
 73
     2
 40
0.1
 49
0.05
 74
     0
 49
-0.05
 74
     0
  0
LTYPE
  5
41
330
5
100
AcDbSymbolTableRecord
100
AcDbLinetypeTableRecord
  2
ACAD_ISO02W100
 70
     0
  3
__ __ __ __ __ __ __ __ __ __ _
 72
    65
 73
     2
 40
15.0
 49
12.0
 74
     0
 49
-3.0
 74
     0
  0
LTYPE
  5
42
330
5
100
AcDbSymbolTableRecord
100
AcDbLinetypeTableRecord
  2
ACAD_ISO03W100
 70
     0
  3
__    __    __    __    __    _
 72
    65
 73
     2
 40
30.0
 49
12.0
 74
     0
 49
-18.0
 74
     0
  0
LTYPE
  5
43
330
5
100
AcDbSymbolTableRecord
100
AcDbLinetypeTableRecord
  2
ACAD_ISO04W100
 70
     0
  3
____ . ____ . ____ . ____ . ___
 72
    65
 73
     4
 40
30.5
 49
24.0
 74
     0
 49
-3.0
 74
     0
 49
0.5
 74
     0
 49
-3.0
 74
     0
  0
LTYPE
  5
44
330
5
100
AcDbSymbolTableRecord
100
AcDbLinetypeTableRecord
  2
ACAD_ISO05W100
 70
     0
  3
____ .. ____ .. ____ .. ____ ..
 72
    65
 73
     6
 40
34.0
 49
24.0
 74
     0
 49
-3.0
 74
     0
 49
0.5
 74
     0
 49
-3.0
 74
     0
 49
0.5
 74
     0
 49
-3.0
 74
     0
  0
LTYPE
  5
45
330
5
100
AcDbSymbolTableRecord
100
AcDbLinetypeTableRecord
  2
ACAD_ISO06W100
 70
     0
  3
____ ... ____ ... ____ ... ____
 72
    65
 73
     6
 40
34.0
 49
24.0
 74
     0
 49
-3.0
 74
     0
 49
0.5
 74
     0
 49
-3.0
 74
     0
 49
0.5
 74
     0
 49
-3.0
 74
     0
  0
LTYPE
  5
46
330
5
100
AcDbSymbolTableRecord
100
AcDbLinetypeTableRecord
  2
ACAD_ISO07W100
 70
     0
  3
. . . . . . . . . . . . . . . .
 72
    65
 73
     2
 40
3.5
 49
0.5
 74
     0
 49
-3.0
 74
     0
  0
LTYPE
  5
47
330
5
100
AcDbSymbolTableRecord
100
AcDbLinetypeTableRecord
  2
ACAD_ISO08W100
 70
     0
  3
____ __ ____ __ ____ __ ____ __
 72
    65
 73
     4
 40
36.0
 49
24.0
 74
     0
 49
-3.0
 74
     0
 49
6.0
 74
     0
 49
-3.0
 74
     0
  0
LTYPE
  5
48
330
5
100
AcDbSymbolTableRecord
100
AcDbLinetypeTableRecord
  2
ACAD_ISO09W100
 70
     0
  3
____ __ __ ____ __ __ ____ __ _
 72
    65
 73
     6
 40
45.0
 49
24.0
 74
     0
 49
-3.0
 74
     0
 49
6.0
 74
     0
 49
-3.0
 74
     0
 49
6.0
 74
     0
 49
-3.0
 74
     0
  0
LTYPE
  5
49
330
5
100
AcDbSymbolTableRecord
100
AcDbLinetypeTableRecord
  2
ACAD_ISO10W100
 70
     0
  3
__ . __ . __ . __ . __ . __ . _
 72
    65
 73
     4
 40
18.5
 49
12.0
 74
     0
 49
-3.0
 74
     0
 49
0.5
 74
     0
 49
-3.0
 74
     0
  0
LTYPE
  5
4A
330
5
100
AcDbSymbolTableRecord
100
AcDbLinetypeTableRecord
  2
ACAD_ISO11W100
 70
     0
  3
__ __ . __ __ . __ __ . __ __ .
 72
    65
 73
     6
 40
33.5
 49
12.0
 74
     0
 49
-3.0
 74
     0
 49
12.0
 74
     0
 49
-3.0
 74
     0
 49
0.5
 74
     0
 49
-3.0
 74
     0
  0
LTYPE
  5
4B
330
5
100
AcDbSymbolTableRecord
100
AcDbLinetypeTableRecord
  2
ACAD_ISO12W100
 70
     0
  3
__ . . __ . . __ . . __ . . __ 
 72
    65
 73
     6
 40
22.0
 49
12.0
 74
     0
 49
-3.0
 74
     0
 49
0.5
 74
     0
 49
-3.0
 74
     0
 49
0.5
 74
     0
 49
-3.0
 74
     0
  0
LTYPE
  5
4C
330
5
100
AcDbSymbolTableRecord
100
AcDbLinetypeTableRecord
  2
ACAD_ISO13W100
 70
     0
  3
__ __ . . __ __ . . __ __ . . _
 72
    65
 73
     6
 40
33.5
 49
12.0
 74
     0
 49
-3.0
 74
     0
 49
12.0
 74
     0
 49
-3.0
 74
     0
 49
0.5
 74
     0
 49
-3.0
 74
     0
  0
LTYPE
  5
4D
330
5
100
AcDbSymbolTableRecord
100
AcDbLinetypeTableRecord
  2
ACAD_ISO14W100
 70
     0
  3
__ . . . __ . . . __ . . . __ .
 72
    65
 73
     6
 40
22.0
 49
12.0
 74
     0
 49
-3.0
 74
     0
 49
0.5
 74
     0
 49
-3.0
 74
     0
 49
0.5
 74
     0
 49
-3.0
 74
     0
  0
LTYPE
  5
4E
330
5
100
AcDbSymbolTableRecord
100
AcDbLinetypeTableRecord
  2
ACAD_ISO15W100
 70
     0
  3
__ __ . . . __ __ . . . __ __ .
 72
    65
 73
     6
 40
33.5
 49
12.0
 74
     0
 49
-3.0
 74
     0
 49
12.0
 74
     0
 49
-3.0
 74
     0
 49
0.5
 74
     0
 49
-3.0
 74
     0
  0
ENDTAB
  0
TABLE
  2
LAYER
  5
2
330
0
100
AcDbSymbolTable
 70
     5
  0
LAYER
  5
10
330
2
100
AcDbSymbolTableRecord
100
AcDbLayerTableRecord
  2
0
 70
     0
 62
     7
  6
CONTINUOUS
  0
LAYER
  5
4F
330
2
100
AcDbSymbolTableRecord
100
AcDbLayerTableRecord
  2
1
 70
     0
 62
     7
  6
CONTINUOUS
  0
LAYER
  5
50
330
2
100
AcDbSymbolTableRecord
100
AcDbLayerTableRecord
  2
2
 70
     0
 62
     7
  6
CONTINUOUS
  0
LAYER
  5
51
330
2
100
AcDbSymbolTableRecord
100
AcDbLayerTableRecord
  2
BORTEXT
 70
     0
 62
     7
  6
CONTINUOUS
  0
LAYER
  5
52
330
2
100
AcDbSymbolTableRecord
100
AcDbLayerTableRecord
  2
DEFPOINTS
 70
     0
 62
     7
  6
CONTINUOUS
  0
ENDTAB
  0
TABLE
  2
STYLE
  5
3
330
0
100
AcDbSymbolTable
 70
     5
  0
STYLE
  5
11
330
3
100
AcDbSymbolTableRecord
100
AcDbTextStyleTableRecord
  2
STANDARD
 70
     0
 40
0.0
 41
1.0
 50
0.0
 71
     0
 42
17.84756209236776
  3
txt
  4

  0
STYLE
  5
53
330
3
100
AcDbSymbolTableRecord
100
AcDbTextStyleTableRecord
  2
ITALIC
 70
     0
 40
0.0
 41
1.0
 50
0.0
 71
     0
 42
17.84756209236776
  3
ITALIC
  4

  0
STYLE
  5
54
330
3
100
AcDbSymbolTableRecord
100
AcDbTextStyleTableRecord
  2
SIMPLEX
 70
     0
 40
0.0
 41
1.0
 50
0.0
 71
     0
 42
17.84756209236776
  3
SIMPLEX
  4

  0
STYLE
  5
55
330
3
100
AcDbSymbolTableRecord
100
AcDbTextStyleTableRecord
  2
COMPLEX
 70
     0
 40
0.0
 41
1.0
 50
0.0
 71
     0
 42
17.84756209236776
  3
COMPLEX
  4

  0
STYLE
  5
58
330
3
100
AcDbSymbolTableRecord
100
AcDbTextStyleTableRecord
  2
TXT
 70
     0
 40
0.0
 41
1.0
 50
0.0
 71
     0
 42
17.84756209236776
  3
txt_____.ttf
  4

1001
ACAD
1000
Txt
1071
        0
  0
ENDTAB
  0
TABLE
  2
VIEW
  5
6
330
0
100
AcDbSymbolTable
 70
     0
  0
ENDTAB
  0
TABLE
  2
UCS
  5
7
330
0
100
AcDbSymbolTable
 70
     0
  0
ENDTAB
  0
TABLE
  2
APPID
  5
9
330
0
100
AcDbSymbolTable
 70
     1
  0
APPID
  5
12
330
9
100
AcDbSymbolTableRecord
100
AcDbRegAppTableRecord
  2
ACAD
 70
     0
  0
ENDTAB
  0
TABLE
  2
DIMSTYLE
  5
A
330
0
100
AcDbSymbolTable
 70
     1
  0
DIMSTYLE
105
27
330
A
100
AcDbSymbolTableRecord
100
AcDbDimStyleTableRecord
  2
STANDARD
 70
     0
  3

  4

  5

  6

  7

 40
1.0
 41
0.18
 42
0.0625
 43
0.38
 44
0.18
 45
0.0
 46
0.0
 47
0.0
 48
0.0
140
0.18
141
0.09
142
0.0
143
25.4
144
1.0
145
0.0
146
1.0
147
0.09
 71
     0
 72
     0
 73
     1
 74
     1
 75
     0
 76
     0
 77
     0
 78
     0
170
     0
171
     2
172
     0
173
     0
174
     0
175
     0
176
     0
177
     0
178
     0
270
     2
271
     4
272
     4
273
     2
274
     2
340
11
275
     0
280
     0
281
     0
282
     0
283
     1
284
     0
285
     0
286
     0
287
     3
288
     0
  0
ENDTAB
  0
TABLE
  2
BLOCK_RECORD
  5
1
330
0
100
AcDbSymbolTable
 70
     9
  0
BLOCK_RECORD
  5
1F
102
{ACAD_XDICTIONARY
360
3DB
102
}
330
1
100
AcDbSymbolTableRecord
100
AcDbBlockTableRecord
  2
*MODEL_SPACE
  0
BLOCK_RECORD
  5
1B
102
{ACAD_XDICTIONARY
360
3D9
102
}
330
1
100
AcDbSymbolTableRecord
100
AcDbBlockTableRecord
  2
*PAPER_SPACE
  0
BLOCK_RECORD
  5
5B
330
1
100
AcDbSymbolTableRecord
100
AcDbBlockTableRecord
  2
LONGARROW
  0
BLOCK_RECORD
  5
68
330
1
100
AcDbSymbolTableRecord
100
AcDbBlockTableRecord
  2
*X2
  0
BLOCK_RECORD
  5
1C5
330
1
100
AcDbSymbolTableRecord
100
AcDbBlockTableRecord
  2
REV_A__1
  0
BLOCK_RECORD
  5
1CD
330
1
100
AcDbSymbolTableRecord
100
AcDbBlockTableRecord
  2
REV_A__2
  0
BLOCK_RECORD
  5
1D5
330
1
100
AcDbSymbolTableRecord
100
AcDbBlockTableRecord
  2
WBS6_FORMAT_D
  0
BLOCK_RECORD
  5
1D7
330
1
100
AcDbSymbolTableRecord
100
AcDbBlockTableRecord
  2
*X6
  0
BLOCK_RECORD
  5
1F6
330
1
100
AcDbSymbolTableRecord
100
AcDbBlockTableRecord
  2
*X7
  0
BLOCK_RECORD
  5
215
330
1
100
AcDbSymbolTableRecord
100
AcDbBlockTableRecord
  2
*X8
  0
ENDTAB
  0
ENDSEC
  0
SECTION
  2
BLOCKS
  0
BLOCK
  5
20
330
1F
100
AcDbEntity
  8
0
100
AcDbBlockBegin
  2
*MODEL_SPACE
 70
     0
 10
0.0
 20
0.0
 30
0.0
  3
*MODEL_SPACE
  1

  0
ENDBLK
  5
21
330
1F
100
AcDbEntity
  8
0
100
AcDbBlockEnd
  0
BLOCK
  5
1C
330
1B
100
AcDbEntity
 67
     1
  8
0
100
AcDbBlockBegin
  2
*PAPER_SPACE
 70
     0
 10
0.0
 20
0.0
 30
0.0
  3
*PAPER_SPACE
  1

  0
ENDBLK
  5
1D
330
1B
100
AcDbEntity
 67
     1
  8
0
100
AcDbBlockEnd
  0
BLOCK
  5
5E
330
5B
100
AcDbEntity
  8
0
100
AcDbBlockBegin
  2
LONGARROW
 70
     0
 10
0.0
 20
0.0
 30
0.0
  3
LONGARROW
  1

  0
LWPOLYLINE
  5
5C
102
{ACAD_REACTORS
330
5D
102
}
330
5B
100
AcDbEntity
  8
0
  6
CONTINUOUS
 62
     0
100
AcDbPolyline
 90
        3
 70
     1
 43
0.0
 10
0.0
 20
0.0
 10
2.0
 20
-0.25
 10
2.0
 20
0.25
  0
HATCH
  5
5D
330
5B
100
AcDbEntity
  8
0
  6
CONTINUOUS
 62
     0
100
AcDbHatch
 10
0.0
 20
0.0
 30
0.0
210
0.0
220
0.0
230
1.0
  2
SOLID
 70
     1
 71
     1
 91
        1
 92
        1
 93
        3
 72
     1
 10
0.0
 20
0.0
 11
2.0
 21
-0.25
 72
     1
 10
2.0
 20
-0.25
 11
2.0
 21
0.25
 72
     1
 10
2.0
 20
0.25
 11
0.0
 21
0.0
 97
        1
330
5C
 75
     0
 76
     1
 98
        1
 10
0.0
 20
0.0
  0
ENDBLK
  5
5F
330
5B
100
AcDbEntity
  8
0
100
AcDbBlockEnd
  0
BLOCK
  5
AA
330
68
100
AcDbEntity
  8
0
100
AcDbBlockBegin
  2
*X2
 70
     1
 10
0.0
 20
0.0
 30
0.0
  3
*X2
  1

  0
LINE
  5
69
330
68
100
AcDbEntity
  8
0
 62
     7
100
AcDbLine
 10
-0.9000984251968521
 20
-0.051570287772995
 30
0.0
 11
-0.8128312870301504
 21
0.035696850393704
 31
0.0
  0
LINE
  5
6A
330
68
100
AcDbEntity
  8
0
 62
     7
100
AcDbLine
 10
-0.8444020604807674
 20
-0.1372952792942264
 30
0.0
 11
-0.6714099307928411
 21
0.035696850393704
 31
0.0
  0
LINE
  5
6B
330
68
100
AcDbEntity
  8
0
 62
     7
100
AcDbLine
 10
-0.702980704243458
 20
-0.1372952792942264
 30
0.0
 11
-0.5299885745555316
 21
0.0356968503937039
 31
0.0
  0
LINE
  5
6C
330
68
100
AcDbEntity
  8
0
 62
     7
100
AcDbLine
 10
-0.5615593480061484
 20
-0.1372952792942264
 30
0.0
 11
-0.3885672183182222
 21
0.0356968503937039
 31
0.0
  0
LINE
  5
6D
330
68
100
AcDbEntity
  8
0
 62
     7
100
AcDbLine
 10
-0.4201379917688389
 20
-0.1372952792942264
 30
0.0
 11
-0.2471458620809127
 21
0.0356968503937038
 31
0.0
  0
LINE
  5
6E
330
68
100
AcDbEntity
  8
0
 62
     7
100
AcDbLine
 10
-0.2787166355315293
 20
-0.1372952792942264
 30
0.0
 11
-0.1057245058436032
 21
0.0356968503937038
 31
0.0
  0
LINE
  5
6F
330
68
100
AcDbEntity
  8
0
 62
     7
100
AcDbLine
 10
-0.1372952792942197
 20
-0.1372952792942264
 30
0.0
 11
0.0356968503937063
 21
0.0356968503937038
 31
0.0
  0
LINE
  5
70
330
68
100
AcDbEntity
  8
0
 62
     7
100
AcDbLine
 10
0.0041260769430898
 20
-0.1372952792942264
 30
0.0
 11
0.1771182066310157
 21
0.0356968503937037
 31
0.0
  0
LINE
  5
71
330
68
100
AcDbEntity
  8
0
 62
     7
100
AcDbLine
 10
0.1455474331803993
 20
-0.1372952792942264
 30
0.0
 11
0.3185395628683252
 21
0.0356968503937036
 31
0.0
  0
LINE
  5
72
330
68
100
AcDbEntity
  8
0
 62
     7
100
AcDbLine
 10
0.2869687894177089
 20
-0.1372952792942264
 30
0.0
 11
0.4599609191056346
 21
0.0356968503937036
 31
0.0
  0
LINE
  5
73
330
68
100
AcDbEntity
  8
0
 62
     7
100
AcDbLine
 10
0.4283901456550184
 20
-0.1372952792942264
 30
0.0
 11
0.6013822753429441
 21
0.0356968503937036
 31
0.0
  0
LINE
  5
74
330
68
100
AcDbEntity
  8
0
 62
     7
100
AcDbLine
 10
0.5698115018923281
 20
-0.1372952792942264
 30
0.0
 11
0.7428036315802535
 21
0.0356968503937035
 31
0.0
  0
LINE
  5
75
330
68
100
AcDbEntity
  8
0
 62
     7
100
AcDbLine
 10
0.7112328581296376
 20
-0.1372952792942264
 30
0.0
 11
0.8842249878175628
 21
0.0356968503937034
 31
0.0
  0
LINE
  5
76
330
68
100
AcDbEntity
  8
0
 62
     7
100
AcDbLine
 10
0.852654214366947
 20
-0.1372952792942264
 30
0.0
 11
1.025646344054872
 21
0.0356968503937034
 31
0.0
  0
LINE
  5
77
330
68
100
AcDbEntity
  8
0
 62
     7
100
AcDbLine
 10
0.9940755706042567
 20
-0.1372952792942264
 30
0.0
 11
1.167067700292182
 21
0.0356968503937034
 31
0.0
  0
LINE
  5
78
330
68
100
AcDbEntity
  8
0
 62
     7
100
AcDbLine
 10
1.135496926841566
 20
-0.1372952792942264
 30
0.0
 11
1.30848905652949
 21
0.0356968503937033
 31
0.0
  0
LINE
  5
79
330
68
100
AcDbEntity
  8
0
 62
     7
100
AcDbLine
 10
1.276918283078875
 20
-0.1372952792942264
 30
0.0
 11
1.449910412766801
 21
0.0356968503937032
 31
0.0
  0
LINE
  5
7A
330
68
100
AcDbEntity
  8
0
 62
     7
100
AcDbLine
 10
1.418339639316185
 20
-0.1372952792942264
 30
0.0
 11
1.591331769004109
 21
0.0356968503937032
 31
0.0
  0
LINE
  5
7B
330
68
100
AcDbEntity
  8
0
 62
     7
100
AcDbLine
 10
1.559760995553495
 20
-0.1372952792942264
 30
0.0
 11
1.732753125241419
 21
0.0356968503937032
 31
0.0
  0
LINE
  5
7C
330
68
100
AcDbEntity
  8
0
 62
     7
100
AcDbLine
 10
1.701182351790803
 20
-0.1372952792942264
 30
0.0
 11
1.874174481478728
 21
0.0356968503937031
 31
0.0
  0
LINE
  5
7D
330
68
100
AcDbEntity
  8
0
 62
     7
100
AcDbLine
 10
1.842603708028113
 20
-0.1372952792942264
 30
0.0
 11
2.015595837716039
 21
0.0356968503937031
 31
0.0
  0
LINE
  5
7E
330
68
100
AcDbEntity
  8
0
 62
     7
100
AcDbLine
 10
1.984025064265423
 20
-0.1372952792942264
 30
0.0
 11
2.157017193953348
 21
0.035696850393703
 31
0.0
  0
LINE
  5
7F
330
68
100
AcDbEntity
  8
0
 62
     7
100
AcDbLine
 10
2.125446420502731
 20
-0.1372952792942264
 30
0.0
 11
2.298438550190658
 21
0.035696850393703
 31
0.0
  0
LINE
  5
80
330
68
100
AcDbEntity
  8
0
 62
     7
100
AcDbLine
 10
2.266867776740042
 20
-0.1372952792942264
 30
0.0
 11
2.439859906427968
 21
0.0356968503937029
 31
0.0
  0
LINE
  5
81
330
68
100
AcDbEntity
  8
0
 62
     7
100
AcDbLine
 10
2.408289132977352
 20
-0.1372952792942264
 30
0.0
 11
2.581281262665276
 21
0.0356968503937029
 31
0.0
  0
LINE
  5
82
330
68
100
AcDbEntity
  8
0
 62
     7
100
AcDbLine
 10
2.54971048921466
 20
-0.1372952792942264
 30
0.0
 11
2.722702618902586
 21
0.0356968503937028
 31
0.0
  0
LINE
  5
83
330
68
100
AcDbEntity
  8
0
 62
     7
100
AcDbLine
 10
2.69113184545197
 20
-0.1372952792942264
 30
0.0
 11
2.864123975139897
 21
0.0356968503937028
 31
0.0
  0
LINE
  5
84
330
68
100
AcDbEntity
  8
0
 62
     7
100
AcDbLine
 10
2.832553201689281
 20
-0.1372952792942264
 30
0.0
 11
3.005545331377205
 21
0.0356968503937027
 31
0.0
  0
LINE
  5
85
330
68
100
AcDbEntity
  8
0
 62
     7
100
AcDbLine
 10
2.97397455792659
 20
-0.1372952792942264
 30
0.0
 11
3.146966687614515
 21
0.0356968503937027
 31
0.0
  0
LINE
  5
86
330
68
100
AcDbEntity
  8
0
 62
     7
100
AcDbLine
 10
3.1153959141639
 20
-0.1372952792942264
 30
0.0
 11
3.288388043851826
 21
0.0356968503937026
 31
0.0
  0
LINE
  5
87
330
68
100
AcDbEntity
  8
0
 62
     7
100
AcDbLine
 10
3.25681727040121
 20
-0.1372952792942264
 30
0.0
 11
3.429809400089134
 21
0.0356968503937026
 31
0.0
  0
LINE
  5
88
330
68
100
AcDbEntity
  8
0
 62
     7
100
AcDbLine
 10
3.398238626638518
 20
-0.1372952792942264
 30
0.0
 11
3.571230756326444
 21
0.0356968503937025
 31
0.0
  0
LINE
  5
89
330
68
100
AcDbEntity
  8
0
 62
     7
100
AcDbLine
 10
3.539659982875828
 20
-0.1372952792942264
 30
0.0
 11
3.712652112563755
 21
0.0356968503937025
 31
0.0
  0
LINE
  5
8A
330
68
100
AcDbEntity
  8
0
 62
     7
100
AcDbLine
 10
3.681081339113138
 20
-0.1372952792942264
 30
0.0
 11
3.854073468801063
 21
0.0356968503937024
 31
0.0
  0
LINE
  5
8B
330
68
100
AcDbEntity
  8
0
 62
     7
100
AcDbLine
 10
3.822502695350448
 20
-0.1372952792942264
 30
0.0
 11
3.995494825038373
 21
0.0356968503937024
 31
0.0
  0
LINE
  5
8C
330
68
100
AcDbEntity
  8
0
 62
     7
100
AcDbLine
 10
3.963924051587758
 20
-0.1372952792942264
 30
0.0
 11
4.136916181275683
 21
0.0356968503937023
 31
0.0
  0
LINE
  5
8D
330
68
100
AcDbEntity
  8
0
 62
     7
100
AcDbLine
 10
4.105345407825068
 20
-0.1372952792942264
 30
0.0
 11
4.278337537512992
 21
0.0356968503937023
 31
0.0
  0
LINE
  5
8E
330
68
100
AcDbEntity
  8
0
 62
     7
100
AcDbLine
 10
4.246766764062376
 20
-0.1372952792942264
 30
0.0
 11
4.419758893750301
 21
0.0356968503937023
 31
0.0
  0
LINE
  5
8F
330
68
100
AcDbEntity
  8
0
 62
     7
100
AcDbLine
 10
4.388188120299686
 20
-0.1372952792942264
 30
0.0
 11
4.561180249987611
 21
0.0356968503937022
 31
0.0
  0
LINE
  5
90
330
68
100
AcDbEntity
  8
0
 62
     7
100
AcDbLine
 10
4.529609476536995
 20
-0.1372952792942264
 30
0.0
 11
4.70260160622492
 21
0.0356968503937021
 31
0.0
  0
LINE
  5
91
330
68
100
AcDbEntity
  8
0
 62
     7
100
AcDbLine
 10
4.671030832774304
 20
-0.1372952792942264
 30
0.0
 11
4.84402296246223
 21
0.0356968503937021
 31
0.0
  0
LINE
  5
92
330
68
100
AcDbEntity
  8
0
 62
     7
100
AcDbLine
 10
4.812452189011612
 20
-0.1372952792942264
 30
0.0
 11
4.985444318699538
 21
0.035696850393702
 31
0.0
  0
LINE
  5
93
330
68
100
AcDbEntity
  8
0
 62
     7
100
AcDbLine
 10
4.953873545248923
 20
-0.1372952792942264
 30
0.0
 11
5.126865674936847
 21
0.035696850393702
 31
0.0
  0
LINE
  5
94
330
68
100
AcDbEntity
  8
0
 62
     7
100
AcDbLine
 10
5.095294901486231
 20
-0.1372952792942264
 30
0.0
 11
5.268287031174157
 21
0.0356968503937019
 31
0.0
  0
LINE
  5
95
330
68
100
AcDbEntity
  8
0
 62
     7
100
AcDbLine
 10
5.236716257723541
 20
-0.1372952792942264
 30
0.0
 11
5.409708387411466
 21
0.0356968503937019
 31
0.0
  0
LINE
  5
96
330
68
100
AcDbEntity
  8
0
 62
     7
100
AcDbLine
 10
5.378137613960851
 20
-0.1372952792942264
 30
0.0
 11
5.551129743648775
 21
0.0356968503937019
 31
0.0
  0
LINE
  5
97
330
68
100
AcDbEntity
  8
0
 62
     7
100
AcDbLine
 10
5.519558970198159
 20
-0.1372952792942264
 30
0.0
 11
5.692551099886085
 21
0.0356968503937018
 31
0.0
  0
LINE
  5
98
330
68
100
AcDbEntity
  8
0
 62
     7
100
AcDbLine
 10
5.660980326435468
 20
-0.1372952792942264
 30
0.0
 11
5.833972456123393
 21
0.0356968503937018
 31
0.0
  0
LINE
  5
99
330
68
100
AcDbEntity
  8
0
 62
     7
100
AcDbLine
 10
5.802401682672777
 20
-0.1372952792942264
 30
0.0
 11
5.975393812360703
 21
0.0356968503937017
 31
0.0
  0
LINE
  5
9A
330
68
100
AcDbEntity
  8
0
 62
     7
100
AcDbLine
 10
5.943823038910087
 20
-0.1372952792942264
 30
0.0
 11
6.116815168598012
 21
0.0356968503937016
 31
0.0
  0
LINE
  5
9B
330
68
100
AcDbEntity
  8
0
 62
     7
100
AcDbLine
 10
6.085244395147397
 20
-0.1372952792942264
 30
0.0
 11
6.258236524835322
 21
0.0356968503937016
 31
0.0
  0
LINE
  5
9C
330
68
100
AcDbEntity
  8
0
 62
     7
100
AcDbLine
 10
6.226665751384706
 20
-0.1372952792942264
 30
0.0
 11
6.399657881072631
 21
0.0356968503937016
 31
0.0
  0
LINE
  5
9D
330
68
100
AcDbEntity
  8
0
 62
     7
100
AcDbLine
 10
6.368087107622014
 20
-0.1372952792942264
 30
0.0
 11
6.541079237309939
 21
0.0356968503937015
 31
0.0
  0
LINE
  5
9E
330
68
100
AcDbEntity
  8
0
 62
     7
100
AcDbLine
 10
6.509508463859325
 20
-0.1372952792942264
 30
0.0
 11
6.682500593547249
 21
0.0356968503937015
 31
0.0
  0
LINE
  5
9F
330
68
100
AcDbEntity
  8
0
 62
     7
100
AcDbLine
 10
6.650929820096633
 20
-0.1372952792942264
 30
0.0
 11
6.823921949784558
 21
0.0356968503937014
 31
0.0
  0
LINE
  5
A0
330
68
100
AcDbEntity
  8
0
 62
     7
100
AcDbLine
 10
6.792351176333942
 20
-0.1372952792942264
 30
0.0
 11
6.965343306021867
 21
0.0356968503937014
 31
0.0
  0
LINE
  5
A1
330
68
100
AcDbEntity
  8
0
 62
     7
100
AcDbLine
 10
6.933772532571252
 20
-0.1372952792942264
 30
0.0
 11
7.106764662259178
 21
0.0356968503937013
 31
0.0
  0
LINE
  5
A2
330
68
100
AcDbEntity
  8
0
 62
     7
100
AcDbLine
 10
7.075193888808561
 20
-0.1372952792942264
 30
0.0
 11
7.248186018496487
 21
0.0356968503937013
 31
0.0
  0
LINE
  5
A3
330
68
100
AcDbEntity
  8
0
 62
     7
100
AcDbLine
 10
7.21661524504587
 20
-0.1372952792942264
 30
0.0
 11
7.389607374733795
 21
0.0356968503937012
 31
0.0
  0
LINE
  5
A4
330
68
100
AcDbEntity
  8
0
 62
     7
100
AcDbLine
 10
7.358036601283179
 20
-0.1372952792942264
 30
0.0
 11
7.531028730971105
 21
0.0356968503937012
 31
0.0
  0
LINE
  5
A5
330
68
100
AcDbEntity
  8
0
 62
     7
100
AcDbLine
 10
7.499457957520488
 20
-0.1372952792942264
 30
0.0
 11
7.672450087208414
 21
0.0356968503937011
 31
0.0
  0
LINE
  5
A6
330
68
100
AcDbEntity
  8
0
 62
     7
100
AcDbLine
 10
7.640879313757797
 20
-0.1372952792942264
 30
0.0
 11
7.813871443445723
 21
0.0356968503937011
 31
0.0
  0
LINE
  5
A7
330
68
100
AcDbEntity
  8
0
 62
     7
100
AcDbLine
 10
7.782300669995107
 20
-0.1372952792942264
 30
0.0
 11
7.955292799683031
 21
0.035696850393701
 31
0.0
  0
LINE
  5
A8
330
68
100
AcDbEntity
  8
0
 62
     7
100
AcDbLine
 10
7.923722026232417
 20
-0.1372952792942264
 30
0.0
 11
8.096714155920341
 21
0.035696850393701
 31
0.0
  0
LINE
  5
A9
330
68
100
AcDbEntity
  8
0
 62
     7
100
AcDbLine
 10
8.065143382469726
 20
-0.1372952792942264
 30
0.0
 11
8.224901574803151
 21
0.0224629130391989
 31
0.0
  0
ENDBLK
  5
AB
330
68
100
AcDbEntity
  8
0
100
AcDbBlockEnd
  0
BLOCK
  5
1CA
330
1C5
100
AcDbEntity
  8
0
100
AcDbBlockBegin
  2
REV_A__1
 70
     0
 10
0.0
 20
0.0
 30
0.0
  3
REV_A__1
  1

  0
LINE
  5
1C6
330
1C5
100
AcDbEntity
  8
0
 62
     3
100
AcDbLine
 10
0.375
 20
0.0
 30
0.0
 11
0.0
 21
0.0
 31
0.0
  0
LINE
  5
1C7
330
1C5
100
AcDbEntity
  8
0
 62
     3
100
AcDbLine
 10
0.1875
 20
0.3749999999999987
 30
0.0
 11
0.375
 21
0.0
 31
0.0
  0
LINE
  5
1C8
330
1C5
100
AcDbEntity
  8
0
 62
     3
100
AcDbLine
 10
0.0
 20
0.0
 30
0.0
 11
0.1875
 21
0.3749999999999987
 31
0.0
  0
TEXT
  5
1C9
330
1C5
100
AcDbEntity
  8
0
 62
     3
100
AcDbText
 10
0.1446428571428572
 20
0.0694667443804158
 30
0.0
 40
0.125
  1
A
 41
0.9
  7
SIMPLEX
 72
     1
 11
0.1875
 21
0.1319667443804158
 31
0.0
100
AcDbText
 73
     2
  0
ENDBLK
  5
1CB
330
1C5
100
AcDbEntity
  8
0
100
AcDbBlockEnd
  0
BLOCK
  5
1D2
330
1CD
100
AcDbEntity
  8
0
100
AcDbBlockBegin
  2
REV_A__2
 70
     0
 10
0.0
 20
0.0
 30
0.0
  3
REV_A__2
  1

  0
LINE
  5
1CE
330
1CD
100
AcDbEntity
  8
0
 62
     3
100
AcDbLine
 10
0.375
 20
0.0
 30
0.0
 11
0.0
 21
0.0
 31
0.0
  0
LINE
  5
1CF
330
1CD
100
AcDbEntity
  8
0
 62
     3
100
AcDbLine
 10
0.1875
 20
0.3749999999999991
 30
0.0
 11
0.375
 21
0.0
 31
0.0
  0
LINE
  5
1D0
330
1CD
100
AcDbEntity
  8
0
 62
     3
100
AcDbLine
 10
0.0
 20
0.0
 30
0.0
 11
0.1875
 21
0.3749999999999991
 31
0.0
  0
TEXT
  5
1D1
330
1CD
100
AcDbEntity
  8
0
 62
     3
100
AcDbText
 10
0.1446428571428572
 20
0.0694667443804162
 30
0.0
 40
0.125
  1
A
 41
0.9
  7
SIMPLEX
 72
     1
 11
0.1875
 21
0.1319667443804162
 31
0.0
100
AcDbText
 73
     2
  0
ENDBLK
  5
1D3
330
1CD
100
AcDbEntity
  8
0
100
AcDbBlockEnd
  0
BLOCK
  5
3B5
330
1D5
100
AcDbEntity
  8
0
100
AcDbBlockBegin
  2
WBS6_FORMAT_D
 70
     0
 10
0.0
 20
0.0
 30
0.0
  3
WBS6_FORMAT_D
  1

  0
INSERT
  5
1D6
330
1D5
100
AcDbEntity
  8
1
100
AcDbBlockReference
  2
*X2
 10
0.5166639769266496
 20
3.464022097275044
 30
0.0
  0
INSERT
  5
1F5
330
1D5
100
AcDbEntity
  8
1
100
AcDbBlockReference
  2
*X6
 10
0.5166639769266496
 20
3.464022097275044
 30
0.0
  0
INSERT
  5
214
330
1D5
100
AcDbEntity
  8
1
100
AcDbBlockReference
  2
*X7
 10
0.5166639769266496
 20
3.464022097275044
 30
0.0
  0
INSERT
  5
22E
330
1D5
100
AcDbEntity
  8
1
100
AcDbBlockReference
  2
*X8
 10
0.5166639769266496
 20
3.464022097275044
 30
0.0
  0
LINE
  5
22F
330
1D5
100
AcDbEntity
  8
0
 62
     4
100
AcDbLine
 10
14.26772761162009
 20
9.837297684371758
 30
0.0
 11
16.30522761161991
 21
9.837297684371758
 31
0.0
  0
LINE
  5
230
330
1D5
100
AcDbEntity
  8
0
 62
     2
100
AcDbLine
 10
16.30522761161991
 20
10.62854768437178
 30
0.0
 11
9.073977611620081
 21
10.62854768437178
 31
0.0
  0
LINE
  5
231
330
1D5
100
AcDbEntity
  8
0
 62
     2
100
AcDbLine
 10
9.073977611620081
 20
10.62854768437065
 30
0.0
 11
9.073977611620081
 21
10.08729768437077
 31
0.0
  0
LINE
  5
232
330
1D5
100
AcDbEntity
  8
0
 62
     2
100
AcDbLine
 10
16.30522761162008
 20
10.36729768437181
 30
0.0
 11
9.073977611620081
 21
10.36729768437181
 31
0.0
  0
LINE
  5
233
330
1D5
100
AcDbEntity
  8
0
 62
     2
100
AcDbLine
 10
16.30522761162008
 20
10.08729768437077
 30
0.0
 11
9.073977611620081
 21
10.08729768437077
 31
0.0
  0
LINE
  5
234
330
1D5
100
AcDbEntity
  8
0
 62
     4
100
AcDbLine
 10
16.30522761162008
 20
9.587297684370742
 30
0.0
 11
9.073977611620081
 21
9.587297684370742
 31
0.0
  0
LINE
  5
235
330
1D5
100
AcDbEntity
  8
0
 62
     2
100
AcDbLine
 10
15.20522761162009
 20
10.08729768437077
 30
0.0
 11
15.20522761162009
 21
10.36729768437181
 31
0.0
  0
LINE
  5
236
330
1D5
100
AcDbEntity
  8
0
 62
     2
100
AcDbLine
 10
14.26772761162009
 20
10.08729768437077
 30
0.0
 11
14.26772761162009
 21
10.36729768437181
 31
0.0
  0
LINE
  5
237
330
1D5
100
AcDbEntity
  8
0
 62
     2
100
AcDbLine
 10
10.03647761162009
 20
10.08729768437077
 30
0.0
 11
10.03647761162009
 21
10.36729768437181
 31
0.0
  0
LINE
  5
238
330
1D5
100
AcDbEntity
  8
0
 62
     2
100
AcDbLine
 10
9.636477611620096
 20
10.08729768437077
 30
0.0
 11
9.636477611620096
 21
10.36729768437181
 31
0.0
  0
LINE
  5
239
330
1D5
100
AcDbEntity
  8
0
 62
     4
100
AcDbLine
 10
14.26772761162009
 20
10.08729768437077
 30
0.0
 11
14.26772761162009
 21
9.087297684371714
 31
0.0
  0
LINE
  5
23A
330
1D5
100
AcDbEntity
  8
0
 62
     4
100
AcDbLine
 10
16.30522761162008
 20
9.087297684371714
 30
0.0
 11
9.073977611620081
 21
9.087297684371714
 31
0.0
  0
LINE
  5
23B
330
1D5
100
AcDbEntity
  8
0
 62
     4
100
AcDbLine
 10
15.20522761162009
 20
9.087297684371714
 30
0.0
 11
15.20522761162009
 21
10.08729768437077
 31
0.0
  0
LINE
  5
23C
330
1D5
100
AcDbEntity
  8
0
 62
     4
100
AcDbLine
 10
10.03647761162009
 20
9.087297684371714
 30
0.0
 11
10.03647761162009
 21
10.08729768437077
 31
0.0
  0
LINE
  5
23D
330
1D5
100
AcDbEntity
  8
0
 62
     4
100
AcDbLine
 10
9.636477611620096
 20
9.087297684371714
 30
0.0
 11
9.636477611620096
 21
10.08729768437077
 31
0.0
  0
LINE
  5
23E
330
1D5
100
AcDbEntity
  8
0
 62
     4
100
AcDbLine
 10
9.073977611620081
 20
9.087297684371714
 30
0.0
 11
9.073977611620081
 21
10.08729768437077
 31
0.0
  0
LINE
  5
23F
330
1D5
100
AcDbEntity
  8
0
 62
     4
100
AcDbLine
 10
16.30522761162008
 20
10.08729768437077
 30
0.0
 11
16.30522761162008
 21
9.087297684371714
 31
0.0
  0
LINE
  5
240
330
1D5
100
AcDbEntity
  8
0
 62
     2
100
AcDbLine
 10
16.30522761162008
 20
10.08729768437077
 30
0.0
 11
16.30522761161991
 21
10.62854768437178
 31
0.0
  0
LINE
  5
241
330
1D5
100
AcDbEntity
  8
0
 62
     2
100
AcDbLine
 10
16.32397761162011
 20
-6.864592713092225
 30
0.0
 11
6.20822390017811
 21
-6.864592713092225
 31
0.0
  0
LINE
  5
242
330
1D5
100
AcDbEntity
  8
0
 62
     2
100
AcDbLine
 10
16.32397761162011
 20
-6.859592713092204
 30
0.0
 11
6.203223900178119
 21
-6.859592713092204
 31
0.0
  0
LINE
  5
243
330
1D5
100
AcDbEntity
  8
0
 62
     2
100
AcDbLine
 10
16.32397761162011
 20
-6.854592713092335
 30
0.0
 11
6.198223900178081
 21
-6.854592713092335
 31
0.0
  0
LINE
  5
244
330
1D5
100
AcDbEntity
  8
0
 62
     3
100
AcDbLine
 10
7.343050700259629
 20
-7.679847735528667
 30
0.0
 11
7.401709782971212
 21
-7.679847735528667
 31
0.0
  0
LINE
  5
245
330
1D5
100
AcDbEntity
  8
0
 62
     3
100
AcDbLine
 10
7.372380241615426
 20
-7.650518194172876
 30
0.0
 11
7.372380241615426
 21
-7.709177276884465
 31
0.0
  0
LINE
  5
246
330
1D5
100
AcDbEntity
  8
0
 62
     3
100
AcDbLine
 10
7.343050700259629
 20
-7.709177276884465
 30
0.0
 11
7.401709782971212
 21
-7.709177276884465
 31
0.0
  0
LINE
  5
247
330
1D5
100
AcDbEntity
  8
0
 62
     3
100
AcDbLine
 10
7.343050700259629
 20
-7.594229383601847
 30
0.0
 11
7.401709782971212
 21
-7.594229383601847
 31
0.0
  0
LINE
  5
248
330
1D5
100
AcDbEntity
  8
0
 62
     3
100
AcDbLine
 10
7.372380241615426
 20
-7.535570300890185
 30
0.0
 11
7.372380241615426
 21
-7.594229383601847
 31
0.0
  0
LINE
  5
249
330
1D5
100
AcDbEntity
  8
0
 62
     3
100
AcDbLine
 10
7.343050700259629
 20
-7.564899842245905
 30
0.0
 11
7.401709782971212
 21
-7.564899842245905
 31
0.0
  0
LINE
  5
24A
330
1D5
100
AcDbEntity
  8
0
 62
     3
100
AcDbLine
 10
6.371268982853413
 20
-7.564899842245905
 30
0.0
 11
6.429928065565087
 21
-7.564899842245905
 31
0.0
  0
LINE
  5
24B
330
1D5
100
AcDbEntity
  8
0
 62
     3
100
AcDbLine
 10
6.400598524209179
 20
-7.535570300890185
 30
0.0
 11
6.400598524209179
 21
-7.594229383601847
 31
0.0
  0
LINE
  5
24C
330
1D5
100
AcDbEntity
  8
0
 62
     3
100
AcDbLine
 10
6.371268982853413
 20
-7.594229383601847
 30
0.0
 11
6.429928065565087
 21
-7.594229383601847
 31
0.0
  0
LINE
  5
24D
330
1D5
100
AcDbEntity
  8
0
 62
     3
100
AcDbLine
 10
7.829302922802527
 20
-7.564899842245905
 30
0.0
 11
7.887962005514109
 21
-7.564899842245905
 31
0.0
  0
LINE
  5
24E
330
1D5
100
AcDbEntity
  8
0
 62
     3
100
AcDbLine
 10
7.858632464158326
 20
-7.535570300890185
 30
0.0
 11
7.858632464158326
 21
-7.594229383601847
 31
0.0
  0
LINE
  5
24F
330
1D5
100
AcDbEntity
  8
0
 62
     3
100
AcDbLine
 10
7.829302922802527
 20
-7.594229383601847
 30
0.0
 11
7.887962005514109
 21
-7.594229383601847
 31
0.0
  0
LINE
  5
250
330
1D5
100
AcDbEntity
  8
0
 62
     3
100
AcDbLine
 10
7.117976372919112
 20
-8.695530715502384
 30
0.0
 11
7.190145156567818
 21
-8.820530715502355
 31
0.0
  0
LINE
  5
251
330
1D5
100
AcDbEntity
  8
0
 62
     3
100
AcDbLine
 10
7.190145156567818
 20
-8.820530715502355
 30
0.0
 11
7.334482723865221
 21
-8.570530715502336
 31
0.0
  0
LINE
  5
252
330
1D5
100
AcDbEntity
  8
0
 62
     3
100
AcDbLine
 10
7.334482723865221
 20
-8.570530715502336
 30
0.0
 11
7.584482723865237
 21
-8.570530715502336
 31
0.0
  0
LINE
  5
253
330
1D5
100
AcDbEntity
  8
0
 62
     2
100
AcDbLine
 10
11.1889776116201
 20
-7.562279240052314
 30
0.0
 11
16.32397761162011
 21
-7.562279240052314
 31
0.0
  0
LINE
  5
254
330
1D5
100
AcDbEntity
  8
0
 62
     2
100
AcDbLine
 10
8.674610551932069
 20
-6.864592713092225
 30
0.0
 11
8.674610551932069
 21
-9.371452315629355
 31
0.0
  0
LINE
  5
255
330
1D5
100
AcDbEntity
  8
0
 62
     2
100
AcDbLine
 10
8.669610551932079
 20
-9.371452315629355
 30
0.0
 11
8.669610551932079
 21
-6.864592713092225
 31
0.0
  0
LINE
  5
256
330
1D5
100
AcDbEntity
  8
0
 62
     2
100
AcDbLine
 10
8.679610551932126
 20
-8.991617700513264
 30
0.0
 11
11.1889776116201
 21
-8.991617700513264
 31
0.0
  0
LINE
  5
257
330
1D5
100
AcDbEntity
  8
0
 62
     2
100
AcDbLine
 10
8.679610551932126
 20
-8.611783085398245
 30
0.0
 11
11.1889776116201
 21
-8.611783085398245
 31
0.0
  0
LINE
  5
258
330
1D5
100
AcDbEntity
  8
0
 62
     2
100
AcDbLine
 10
8.679610551932126
 20
-8.231948470282285
 30
0.0
 11
11.1889776116201
 21
-8.231948470282285
 31
0.0
  0
LINE
  5
259
330
1D5
100
AcDbEntity
  8
0
 62
     2
100
AcDbLine
 10
11.1889776116201
 20
-9.371452315629355
 30
0.0
 11
11.1889776116201
 21
-6.864592713092225
 31
0.0
  0
LINE
  5
25A
330
1D5
100
AcDbEntity
  8
0
 62
     2
100
AcDbLine
 10
11.19397761162008
 20
-9.371452315629355
 30
0.0
 11
11.19397761162008
 21
-6.864592713092225
 31
0.0
  0
LINE
  5
25B
330
1D5
100
AcDbEntity
  8
0
 62
     2
100
AcDbLine
 10
11.1989776116201
 20
-9.371452315629355
 30
0.0
 11
11.1989776116201
 21
-6.864592713092225
 31
0.0
  0
LINE
  5
25C
330
1D5
100
AcDbEntity
  8
0
 62
     2
100
AcDbLine
 10
8.679610551932126
 20
-7.852113855167264
 30
0.0
 11
11.1989776116201
 21
-7.852113855167264
 31
0.0
  0
LINE
  5
25D
330
1D5
100
AcDbEntity
  8
0
 62
     2
100
AcDbLine
 10
10.37606877302908
 20
-7.472279240052245
 30
0.0
 11
10.37606877302908
 21
-9.371452315629355
 31
0.0
  0
LINE
  5
25E
330
1D5
100
AcDbEntity
  8
0
 62
     2
100
AcDbLine
 10
8.679610551932126
 20
-6.864592713092225
 30
0.0
 11
8.679610551932126
 21
-9.371452315629355
 31
0.0
  0
LINE
  5
25F
330
1D5
100
AcDbEntity
  8
0
 62
     2
100
AcDbLine
 10
8.679610551932126
 20
-7.472279240052245
 30
0.0
 11
11.1889776116201
 21
-7.472279240052245
 31
0.0
  0
LINE
  5
260
330
1D5
100
AcDbEntity
  8
0
 62
     2
100
AcDbLine
 10
12.20425787464422
 20
-9.092868252575295
 30
0.0
 11
12.20425787464422
 21
-9.371452315629355
 31
0.0
  0
LINE
  5
261
330
1D5
100
AcDbEntity
  8
0
 62
     2
100
AcDbLine
 10
14.55391364587906
 20
-9.092868252575295
 30
0.0
 11
14.55391364587906
 21
-9.371452315629355
 31
0.0
  0
LINE
  5
262
330
1D5
100
AcDbEntity
  8
0
 62
     2
100
AcDbLine
 10
15.78194683577808
 20
-8.611783085398245
 30
0.0
 11
15.78194683577808
 21
-9.092868252575295
 31
0.0
  0
LINE
  5
263
330
1D5
100
AcDbEntity
  8
0
 62
     2
100
AcDbLine
 10
11.1989776116201
 20
-8.611783085398245
 30
0.0
 11
16.32397761162011
 21
-8.611783085398245
 31
0.0
  0
LINE
  5
264
330
1D5
100
AcDbEntity
  8
0
 62
     2
100
AcDbLine
 10
11.52814114705706
 20
-8.611783085398245
 30
0.0
 11
11.52814114705706
 21
-9.092868252575295
 31
0.0
  0
LINE
  5
265
330
1D5
100
AcDbEntity
  8
0
 62
     2
100
AcDbLine
 10
11.1989776116201
 20
-9.092868252575295
 30
0.0
 11
16.32397761162011
 21
-9.092868252575295
 31
0.0
  0
LINE
  5
266
330
1D5
100
AcDbEntity
  8
0
 62
     2
100
AcDbLine
 10
6.198223900178082
 20
-9.371452315629355
 30
0.0
 11
6.198223900178082
 21
-6.854592713092335
 31
0.0
  0
LINE
  5
267
330
1D5
100
AcDbEntity
  8
0
 62
     2
100
AcDbLine
 10
6.198223900177511
 20
-9.371452315628856
 30
0.0
 11
16.32397761161979
 21
-9.371452315628856
 31
0.0
  0
LINE
  5
268
330
1D5
100
AcDbEntity
  8
0
 62
     2
100
AcDbLine
 10
6.20822390017811
 20
-8.991617700513264
 30
0.0
 11
8.669610551932079
 21
-8.991617700513264
 31
0.0
  0
LINE
  5
269
330
1D5
100
AcDbEntity
  8
0
 62
     2
100
AcDbLine
 10
6.20822390017811
 20
-8.440139098481314
 30
0.0
 11
8.669610551932079
 21
-8.440139098481314
 31
0.0
  0
LINE
  5
26A
330
1D5
100
AcDbEntity
  8
0
 62
     2
100
AcDbLine
 10
6.20822390017811
 20
-7.788142095597025
 30
0.0
 11
8.669610551932079
 21
-7.788142095597025
 31
0.0
  0
LINE
  5
26B
330
1D5
100
AcDbEntity
  8
0
 62
     2
100
AcDbLine
 10
6.20322390017812
 20
-6.859592713092204
 30
0.0
 11
6.20322390017812
 21
-9.371452315629355
 31
0.0
  0
LINE
  5
26C
330
1D5
100
AcDbEntity
  8
0
 62
     2
100
AcDbLine
 10
6.20822390017811
 20
-6.864592713092225
 30
0.0
 11
6.20822390017811
 21
-9.371452315629355
 31
0.0
  0
LINE
  5
26D
330
1D5
100
AcDbEntity
  8
0
 62
     2
100
AcDbLine
 10
16.32397761161979
 20
-9.371452315628856
 30
0.0
 11
16.32397761162011
 21
-6.854592713092335
 31
0.0
  0
LINE
  5
26E
330
1D5
100
AcDbEntity
  8
0
 62
     7
100
AcDbLine
 10
13.4505838619563
 20
-6.908136632422525
 30
0.0
 11
13.46499109816301
 21
-6.908136632422525
 31
0.0
  0
LINE
  5
26F
330
1D5
100
AcDbEntity
  8
0
 62
     7
100
AcDbLine
 10
13.4505838619563
 20
-7.195988763265365
 30
0.0
 11
13.46482868795068
 21
-7.195988763265365
 31
0.0
  0
LINE
  5
270
330
1D5
100
AcDbEntity
  8
0
 62
     7
100
AcDbLine
 10
13.60053541259778
 20
-7.197310408885742
 30
0.0
 11
13.61478023859221
 21
-7.197310408885742
 31
0.0
  0
LINE
  5
271
330
1D5
100
AcDbEntity
  8
0
 62
     7
100
AcDbLine
 10
13.60053541259778
 20
-6.906814986802213
 30
0.0
 11
13.61478023859221
 21
-6.906814986802213
 31
0.0
  0
LINE
  5
272
330
1D5
100
AcDbEntity
  8
0
 62
     7
100
AcDbLine
 10
13.75143915749025
 20
-6.906814986802213
 30
0.0
 11
13.76568398348466
 21
-6.906814986802213
 31
0.0
  0
LINE
  5
273
330
1D5
100
AcDbEntity
  8
0
 62
     7
100
AcDbLine
 10
13.75143915749025
 20
-7.197310408885742
 30
0.0
 11
13.76568398348466
 21
-7.197310408885742
 31
0.0
  0
LINE
  5
274
330
1D5
100
AcDbEntity
  8
0
 62
     7
100
AcDbLine
 10
13.90234290238275
 20
-7.197310408885742
 30
0.0
 11
13.91658772837715
 21
-7.197310408885742
 31
0.0
  0
LINE
  5
275
330
1D5
100
AcDbEntity
  8
0
 62
     7
100
AcDbLine
 10
13.90234290238275
 20
-6.906814986802213
 30
0.0
 11
13.91658772837715
 21
-6.906814986802213
 31
0.0
  0
LINE
  5
276
330
1D5
100
AcDbEntity
  8
0
 62
     7
100
AcDbLine
 10
14.05229445302428
 20
-7.195988763265365
 30
0.0
 11
14.06653927901865
 21
-7.195988763265365
 31
0.0
  0
LINE
  5
277
330
1D5
100
AcDbEntity
  8
0
 62
     7
100
AcDbLine
 10
14.05229445302428
 20
-6.908136632422525
 30
0.0
 11
14.06653927901865
 21
-6.908136632422525
 31
0.0
  0
LINE
  5
278
330
1D5
100
AcDbEntity
  8
0
 62
     7
100
AcDbLine
 10
13.683871453442
 20
-6.994698707389016
 30
0.0
 11
13.683871453442
 21
-6.994786309260055
 31
0.0
  0
LINE
  5
279
330
1D5
100
AcDbEntity
  8
0
 62
     2
100
AcDbLine
 10
16.32397761162011
 20
-6.396167681894288
 30
0.0
 11
6.198223900178081
 21
-6.396167681894288
 31
0.0
  0
LINE
  5
27A
330
1D5
100
AcDbEntity
  8
0
  6
DIVIDE
 62
     4
100
AcDbLine
 10
6.198223900178082
 20
-6.624050129504265
 30
0.0
 11
5.170017566797134
 21
-6.624050129504265
 31
0.0
  0
LINE
  5
27B
330
1D5
100
AcDbEntity
  8
0
  6
DIVIDE
 62
     4
100
AcDbLine
 10
6.198223900178082
 20
-6.396167681894288
 30
0.0
 11
5.170017566797134
 21
-6.396167681894288
 31
0.0
  0
LINE
  5
27C
330
1D5
100
AcDbEntity
  8
0
  6
DIVIDE
 62
     4
100
AcDbLine
 10
5.170017566797134
 20
-5.396167681893302
 30
0.0
 11
5.170017566797134
 21
-6.864592713092225
 31
0.0
  0
LINE
  5
27D
330
1D5
100
AcDbEntity
  8
0
  6
DIVIDE
 62
     4
100
AcDbLine
 10
5.684120733488149
 20
-5.396167681893302
 30
0.0
 11
5.684120733488149
 21
-6.864592713092225
 31
0.0
  0
LINE
  5
27E
330
1D5
100
AcDbEntity
  8
0
  6
DIVIDE
 62
     4
100
AcDbLine
 10
6.198223900178082
 20
-6.396167681894288
 30
0.0
 11
6.198223900178082
 21
-5.396167681893302
 31
0.0
  0
LINE
  5
27F
330
1D5
100
AcDbEntity
  8
0
  6
DIVIDE
 62
     4
100
AcDbLine
 10
5.170017566797134
 20
-5.89616768189426
 30
0.0
 11
5.684120733488149
 21
-5.89616768189426
 31
0.0
  0
LINE
  5
280
330
1D5
100
AcDbEntity
  8
0
  6
DIVIDE
 62
     4
100
AcDbLine
 10
5.170017566797134
 20
-5.396167681893302
 30
0.0
 11
5.684120733488149
 21
-5.396167681893302
 31
0.0
  0
LINE
  5
281
330
1D5
100
AcDbEntity
  8
0
  6
DIVIDE
 62
     4
100
AcDbLine
 10
5.684120733488149
 20
-5.89616768189426
 30
0.0
 11
6.198223900178082
 21
-5.89616768189426
 31
0.0
  0
LINE
  5
282
330
1D5
100
AcDbEntity
  8
0
  6
DIVIDE
 62
     4
100
AcDbLine
 10
5.684120733488149
 20
-5.396167681893302
 30
0.0
 11
6.198223900178082
 21
-5.396167681893302
 31
0.0
  0
LINE
  5
283
330
1D5
100
AcDbEntity
  8
0
  6
DIVIDE
 62
     4
100
AcDbLine
 10
6.722327066868112
 20
-6.396167681894288
 30
0.0
 11
6.722327066868112
 21
-5.396167681893302
 31
0.0
  0
LINE
  5
284
330
1D5
100
AcDbEntity
  8
0
  6
DIVIDE
 62
     4
100
AcDbLine
 10
7.246430233558153
 20
-6.396167681894288
 30
0.0
 11
7.246430233558153
 21
-5.396167681893302
 31
0.0
  0
LINE
  5
285
330
1D5
100
AcDbEntity
  8
0
  6
DIVIDE
 62
     4
100
AcDbLine
 10
9.399807093541067
 20
-6.396167681894288
 30
0.0
 11
9.399807093541067
 21
-5.396167681893302
 31
0.0
  0
LINE
  5
286
330
1D5
100
AcDbEntity
  8
0
  6
DIVIDE
 62
     4
100
AcDbLine
 10
12.83115623547508
 20
-6.396167681894288
 30
0.0
 11
12.83115623547508
 21
-5.396167681893302
 31
0.0
  0
LINE
  5
287
330
1D5
100
AcDbEntity
  8
0
  6
DIVIDE
 62
     4
100
AcDbLine
 10
15.55522761162011
 20
-6.396167681894288
 30
0.0
 11
15.55522761162011
 21
-5.396167681893302
 31
0.0
  0
LINE
  5
288
330
1D5
100
AcDbEntity
  8
0
  6
DIVIDE
 62
     4
100
AcDbLine
 10
6.198223900178082
 20
-5.396167681893302
 30
0.0
 11
16.32397761162011
 21
-5.396167681893302
 31
0.0
  0
LINE
  5
289
330
1D5
100
AcDbEntity
  8
0
  6
DIVIDE
 62
     4
100
AcDbLine
 10
6.198223900178082
 20
-5.89616768189426
 30
0.0
 11
16.32397761162011
 21
-5.89616768189426
 31
0.0
  0
LINE
  5
28A
330
1D5
100
AcDbEntity
  8
0
 62
     2
100
AcDbLine
 10
15.55522761162011
 20
-6.396167681894288
 30
0.0
 11
15.55522761162011
 21
-6.624050129504265
 31
0.0
  0
LINE
  5
28B
330
1D5
100
AcDbEntity
  8
0
 62
     2
100
AcDbLine
 10
9.399807093541067
 20
-6.624050129504265
 30
0.0
 11
9.399807093541067
 21
-6.396167681894288
 31
0.0
  0
LINE
  5
28C
330
1D5
100
AcDbEntity
  8
0
 62
     2
100
AcDbLine
 10
6.198223900178082
 20
-6.624050129504265
 30
0.0
 11
16.32397761162011
 21
-6.624050129504265
 31
0.0
  0
LINE
  5
28D
330
1D5
100
AcDbEntity
  8
0
 62
     2
100
AcDbLine
 10
12.83115623547508
 20
-6.624050129504265
 30
0.0
 11
12.83115623547508
 21
-6.396167681894288
 31
0.0
  0
LINE
  5
28E
330
1D5
100
AcDbEntity
  8
0
 62
     2
100
AcDbLine
 10
7.246430233558153
 20
-6.396167681894288
 30
0.0
 11
7.246430233558153
 21
-6.624050129504265
 31
0.0
  0
LINE
  5
28F
330
1D5
100
AcDbEntity
  8
0
 62
     2
100
AcDbLine
 10
6.722327066868112
 20
-6.396167681894288
 30
0.0
 11
6.722327066868112
 21
-6.624050129504265
 31
0.0
  0
LINE
  5
290
330
1D5
100
AcDbEntity
  8
0
  6
DIVIDE
 62
     4
100
AcDbLine
 10
6.198223900178082
 20
-6.864592713092225
 30
0.0
 11
5.170017566797134
 21
-6.864592713092225
 31
0.0
  0
LINE
  5
291
330
1D5
100
AcDbEntity
  8
0
 62
     2
100
AcDbLine
 10
6.198223900178082
 20
-6.396167681894288
 30
0.0
 11
6.198223900178082
 21
-6.849592713092324
 31
0.0
  0
LINE
  5
292
330
1D5
100
AcDbEntity
  8
0
 62
     2
100
AcDbLine
 10
6.20322390017812
 20
-6.396167681894288
 30
0.0
 11
6.20322390017812
 21
-6.849592713092324
 31
0.0
  0
LINE
  5
293
330
1D5
100
AcDbEntity
  8
0
 62
     2
100
AcDbLine
 10
6.20822390017811
 20
-6.396167681894288
 30
0.0
 11
6.20822390017811
 21
-6.849592713092324
 31
0.0
  0
LINE
  5
294
330
1D5
100
AcDbEntity
  8
0
 62
     2
100
AcDbLine
 10
6.198223900178082
 20
-6.849592713092324
 30
0.0
 11
16.32397761162011
 21
-6.849592713092324
 31
0.0
  0
LINE
  5
295
330
1D5
100
AcDbEntity
  8
0
  6
DIVIDE
 62
     4
100
AcDbLine
 10
6.722327066868112
 20
-6.624050129504265
 30
0.0
 11
6.722327066868112
 21
-6.849592713092324
 31
0.0
  0
LINE
  5
296
330
1D5
100
AcDbEntity
  8
0
  6
DIVIDE
 62
     4
100
AcDbLine
 10
16.32397761162011
 20
-5.396167681893302
 30
0.0
 11
16.32397761162011
 21
-6.396167681894288
 31
0.0
  0
LINE
  5
297
330
1D5
100
AcDbEntity
  8
0
 62
     2
100
AcDbLine
 10
16.32397761162011
 20
-6.396167681894288
 30
0.0
 11
16.32397761162011
 21
-6.849592713092324
 31
0.0
  0
LINE
  5
298
330
1D5
100
AcDbEntity
  8
0
 62
     2
100
AcDbLine
 10
16.30522761162008
 20
-9.371452315629355
 30
0.0
 11
16.30522761162008
 21
10.62854768437065
 31
0.0
  0
LINE
  5
299
330
1D5
100
AcDbEntity
  8
0
 62
     2
100
AcDbLine
 10
-14.99053026239564
 20
6.128547684371678
 30
0.0
 11
-14.6810223883799
 21
6.128547684371678
 31
0.0
  0
LINE
  5
29A
330
1D5
100
AcDbEntity
  8
0
 62
     2
100
AcDbLine
 10
-14.66227238837987
 20
10.62854768437065
 30
0.0
 11
-14.66227238837987
 21
-9.371452315629355
 31
0.0
  0
LINE
  5
29B
330
1D5
100
AcDbEntity
  8
0
 62
     2
100
AcDbLine
 10
-14.66852238837893
 20
-9.377702315628305
 30
0.0
 11
-14.66852238837893
 21
10.63479768437066
 31
0.0
  0
LINE
  5
29C
330
1D5
100
AcDbEntity
  8
0
 62
     2
100
AcDbLine
 10
-14.67477238837991
 20
-9.383952315628324
 30
0.0
 11
-14.67477238837991
 21
10.64104768437069
 31
0.0
  0
LINE
  5
29D
330
1D5
100
AcDbEntity
  8
0
 62
     2
100
AcDbLine
 10
-14.6810223883799
 20
-9.390202315629347
 30
0.0
 11
-14.6810223883799
 21
10.64729768437071
 31
0.0
  0
LINE
  5
29E
330
1D5
100
AcDbEntity
  8
0
 62
     2
100
AcDbLine
 10
-14.99053026239564
 20
-4.871452315629312
 30
0.0
 11
-14.6810223883799
 21
-4.871452315629312
 31
0.0
  0
LINE
  5
29F
330
1D5
100
AcDbEntity
  8
0
 62
     2
100
AcDbLine
 10
-12.3035223883799
 20
-9.377702315628305
 30
0.0
 11
-12.3035223883799
 21
-9.646133611981255
 31
0.0
  0
LINE
  5
2A0
330
1D5
100
AcDbEntity
  8
0
 62
     2
100
AcDbLine
 10
-8.053522388378899
 20
-9.377702315628305
 30
0.0
 11
-8.053522388378899
 21
-9.646133611981255
 31
0.0
  0
LINE
  5
2A1
330
1D5
100
AcDbEntity
  8
0
 62
     2
100
AcDbLine
 10
-14.66227238837987
 20
-9.371452315629355
 30
0.0
 11
16.30522761162008
 21
-9.371452315629355
 31
0.0
  0
LINE
  5
2A2
330
1D5
100
AcDbEntity
  8
0
 62
     2
100
AcDbLine
 10
-14.66852238837893
 20
-9.377702315628305
 30
0.0
 11
16.3114776116211
 21
-9.377702315628305
 31
0.0
  0
LINE
  5
2A3
330
1D5
100
AcDbEntity
  8
0
 62
     2
100
AcDbLine
 10
-14.67477238837991
 20
-9.383952315628324
 30
0.0
 11
16.3177276116201
 21
-9.383952315628324
 31
0.0
  0
LINE
  5
2A4
330
1D5
100
AcDbEntity
  8
0
 62
     2
100
AcDbLine
 10
-14.6810223883799
 20
-9.390202315629347
 30
0.0
 11
16.32397761162011
 21
-9.390202315629347
 31
0.0
  0
LINE
  5
2A5
330
1D5
100
AcDbEntity
  8
0
 62
     2
100
AcDbLine
 10
13.19647761162014
 20
-9.390202315629347
 30
0.0
 11
13.19647761162014
 21
-9.646133611981255
 31
0.0
  0
LINE
  5
2A6
330
1D5
100
AcDbEntity
  8
0
 62
     2
100
AcDbLine
 10
8.946477611620112
 20
-9.377702315628305
 30
0.0
 11
8.946477611620112
 21
-9.646133611981255
 31
0.0
  0
LINE
  5
2A7
330
1D5
100
AcDbEntity
  8
0
 62
     2
100
AcDbLine
 10
4.696477611620081
 20
-9.371452315629355
 30
0.0
 11
4.696477611620081
 21
-9.646133611981255
 31
0.0
  0
LINE
  5
2A8
330
1D5
100
AcDbEntity
  8
0
 62
     2
100
AcDbLine
 10
-3.803522388379909
 20
-9.377702315628305
 30
0.0
 11
-3.803522388379909
 21
-9.646133611981255
 31
0.0
  0
LINE
  5
2A9
330
1D5
100
AcDbEntity
  8
0
 62
     2
100
AcDbLine
 10
16.32397761162011
 20
6.128547684371678
 30
0.0
 11
16.63348548563587
 21
6.128547684371678
 31
0.0
  0
LINE
  5
2AA
330
1D5
100
AcDbEntity
  8
0
 62
     2
100
AcDbLine
 10
16.3177276116201
 20
10.64104768437069
 30
0.0
 11
16.3177276116201
 21
-9.383952315628324
 31
0.0
  0
LINE
  5
2AB
330
1D5
100
AcDbEntity
  8
0
 62
     2
100
AcDbLine
 10
16.3114776116211
 20
10.63479768437066
 30
0.0
 11
16.3114776116211
 21
-9.377702315628303
 31
0.0
  0
LINE
  5
2AC
330
1D5
100
AcDbEntity
  8
0
 62
     2
100
AcDbLine
 10
16.63348548563587
 20
-4.871452315629312
 30
0.0
 11
16.32397761162011
 21
-4.871452315629312
 31
0.0
  0
LINE
  5
2AD
330
1D5
100
AcDbEntity
  8
0
 62
     2
100
AcDbLine
 10
4.696477611620081
 20
10.92276402581405
 30
0.0
 11
4.696477611620081
 21
10.6472976843707
 31
0.0
  0
LINE
  5
2AE
330
1D5
100
AcDbEntity
  8
0
 62
     2
100
AcDbLine
 10
-3.803522388379909
 20
10.91651402581403
 30
0.0
 11
-3.803522388379909
 21
10.6472976843707
 31
0.0
  0
LINE
  5
2AF
330
1D5
100
AcDbEntity
  8
0
 62
     2
100
AcDbLine
 10
-8.053522388378899
 20
10.91651402581403
 30
0.0
 11
-8.053522388378899
 21
10.6472976843707
 31
0.0
  0
LINE
  5
2B0
330
1D5
100
AcDbEntity
  8
0
 62
     2
100
AcDbLine
 10
-12.3035223883799
 20
10.91651402581403
 30
0.0
 11
-12.3035223883799
 21
10.6472976843707
 31
0.0
  0
LINE
  5
2B1
330
1D5
100
AcDbEntity
  8
0
 62
     2
100
AcDbLine
 10
16.3114776116211
 20
10.63479768437066
 30
0.0
 11
-14.66852238837893
 21
10.63479768437066
 31
0.0
  0
LINE
  5
2B2
330
1D5
100
AcDbEntity
  8
0
 62
     2
100
AcDbLine
 10
16.3177276116201
 20
10.64104768437069
 30
0.0
 11
-14.67477238837991
 21
10.64104768437069
 31
0.0
  0
LINE
  5
2B3
330
1D5
100
AcDbEntity
  8
0
 62
     2
100
AcDbLine
 10
16.32397761162011
 20
10.6472976843707
 30
0.0
 11
-14.6810223883799
 21
10.6472976843707
 31
0.0
  0
LINE
  5
2B4
330
1D5
100
AcDbEntity
  8
0
 62
     2
100
AcDbLine
 10
16.30522761162008
 20
10.62854768437065
 30
0.0
 11
-14.66227238837987
 21
10.62854768437065
 31
0.0
  0
LINE
  5
2B5
330
1D5
100
AcDbEntity
  8
0
 62
     2
100
AcDbLine
 10
12.95303464572286
 20
10.62854768437065
 30
0.0
 11
12.95303464572286
 21
10.90651402581422
 31
0.0
  0
LINE
  5
2B6
330
1D5
100
AcDbEntity
  8
0
 62
     2
100
AcDbLine
 10
12.3189776116201
 20
10.63479768437066
 30
0.0
 11
12.3189776116201
 21
10.91651402581403
 31
0.0
  0
LINE
  5
2B7
330
1D5
100
AcDbEntity
  8
0
 62
     2
100
AcDbLine
 10
12.95803464572286
 20
10.62854768437065
 30
0.0
 11
12.95803464572286
 21
10.90651402581422
 31
0.0
  0
LINE
  5
2B8
330
1D5
100
AcDbEntity
  8
0
 62
     2
100
AcDbLine
 10
12.32397761162009
 20
10.63479768437066
 30
0.0
 11
12.32397761162009
 21
10.91651402581403
 31
0.0
  0
LINE
  5
2B9
330
1D5
100
AcDbEntity
  8
0
 62
     2
100
AcDbLine
 10
13.58209167982566
 20
10.62854768437065
 30
0.0
 11
13.58209167982566
 21
10.91651402581403
 31
0.0
  0
LINE
  5
2BA
330
1D5
100
AcDbEntity
  8
0
 62
     2
100
AcDbLine
 10
13.58709167982568
 20
10.62854768437065
 30
0.0
 11
13.58709167982568
 21
10.91651402581403
 31
0.0
  0
LINE
  5
2BB
330
1D5
100
AcDbEntity
  8
0
 62
     2
100
AcDbLine
 10
9.083977611620117
 20
10.62854768437065
 30
0.0
 11
9.083977611620117
 21
10.91651402581403
 31
0.0
  0
LINE
  5
2BC
330
1D5
100
AcDbEntity
  8
0
 62
     2
100
AcDbLine
 10
9.078977611620105
 20
10.62854768437065
 30
0.0
 11
9.078977611620105
 21
10.91651402581403
 31
0.0
  0
LINE
  5
2BD
330
1D5
100
AcDbEntity
  8
0
 62
     2
100
AcDbLine
 10
9.073977611620081
 20
10.62854768437065
 30
0.0
 11
9.073977611620081
 21
10.91651402581403
 31
0.0
  0
LINE
  5
2BE
330
1D5
100
AcDbEntity
  8
0
 62
     2
100
AcDbLine
 10
9.073977611620081
 20
10.90651402581422
 30
0.0
 11
13.59209167982661
 21
10.90651402581422
 31
0.0
  0
LINE
  5
2BF
330
1D5
100
AcDbEntity
  8
0
 62
     2
100
AcDbLine
 10
9.073977611620081
 20
10.91151402581516
 30
0.0
 11
13.59209167982661
 21
10.91151402581516
 31
0.0
  0
LINE
  5
2C0
330
1D5
100
AcDbEntity
  8
0
 62
     2
100
AcDbLine
 10
9.073977611620081
 20
10.91651402581403
 30
0.0
 11
13.59209167982661
 21
10.91651402581403
 31
0.0
  0
LINE
  5
2C1
330
1D5
100
AcDbEntity
  8
0
 62
     2
100
AcDbLine
 10
13.59209167982661
 20
10.62854768437065
 30
0.0
 11
13.59209167982661
 21
10.91651402581403
 31
0.0
  0
LINE
  5
2C2
330
1D5
100
AcDbEntity
  8
0
 62
     2
100
AcDbLine
 10
9.073977611620081
 20
10.62854768437065
 30
0.0
 11
9.073977611620081
 21
10.91651402581403
 31
0.0
  0
LINE
  5
2C3
330
1D5
100
AcDbEntity
  8
0
 62
     2
100
AcDbLine
 10
0.4464776116210905
 20
10.6472976843707
 30
0.0
 11
0.3913253391174496
 21
10.78472719403671
 31
0.0
  0
LINE
  5
2C4
330
1D5
100
AcDbEntity
  8
0
 62
     2
100
AcDbLine
 10
0.3913253391174496
 20
10.78472719403671
 30
0.0
 11
0.4135967540118892
 21
10.78472719403671
 31
0.0
  0
LINE
  5
2C5
330
1D5
100
AcDbEntity
  8
0
 62
     2
100
AcDbLine
 10
0.4135967540118892
 20
10.78472719403671
 30
0.0
 11
0.4135967540118892
 21
10.85322898072259
 31
0.0
  0
LINE
  5
2C6
330
1D5
100
AcDbEntity
  8
0
 62
     2
100
AcDbLine
 10
0.4135967540118892
 20
10.85322898072259
 30
0.0
 11
0.4793584692294248
 21
10.85322898072259
 31
0.0
  0
LINE
  5
2C7
330
1D5
100
AcDbEntity
  8
0
 62
     2
100
AcDbLine
 10
0.4793584692294248
 20
10.85322898072259
 30
0.0
 11
0.4793584692294248
 21
10.78472719403671
 31
0.0
  0
LINE
  5
2C8
330
1D5
100
AcDbEntity
  8
0
 62
     2
100
AcDbLine
 10
0.4793584692294248
 20
10.78472719403671
 30
0.0
 11
0.5016298841247316
 21
10.78472719403671
 31
0.0
  0
LINE
  5
2C9
330
1D5
100
AcDbEntity
  8
0
 62
     2
100
AcDbLine
 10
0.5016298841247316
 20
10.78472719403671
 30
0.0
 11
0.4464776116210905
 21
10.6472976843707
 31
0.0
  0
LINE
  5
2CA
330
1D5
100
AcDbEntity
  8
0
 62
     2
100
AcDbLine
 10
-14.90602238837989
 20
0.6960476843707198
 30
0.0
 11
-14.6810223883799
 21
0.6285476843706475
 31
0.0
  0
LINE
  5
2CB
330
1D5
100
AcDbEntity
  8
0
 62
     2
100
AcDbLine
 10
-14.90602238837989
 20
0.6555476843707613
 30
0.0
 11
-14.90602238837989
 21
0.6960476843707198
 31
0.0
  0
LINE
  5
2CC
330
1D5
100
AcDbEntity
  8
0
 62
     2
100
AcDbLine
 10
-14.99053026239564
 20
0.6555476843707613
 30
0.0
 11
-14.90602238837989
 21
0.6555476843707613
 31
0.0
  0
LINE
  5
2CD
330
1D5
100
AcDbEntity
  8
0
 62
     2
100
AcDbLine
 10
-14.99053026239564
 20
0.6015476843707464
 30
0.0
 11
-14.99053026239564
 21
0.6555476843707613
 31
0.0
  0
LINE
  5
2CE
330
1D5
100
AcDbEntity
  8
0
 62
     2
100
AcDbLine
 10
-14.90602238837989
 20
0.6015476843707464
 30
0.0
 11
-14.99053026239564
 21
0.6015476843707464
 31
0.0
  0
LINE
  5
2CF
330
1D5
100
AcDbEntity
  8
0
 62
     2
100
AcDbLine
 10
-14.90602238837989
 20
0.5610476843717183
 30
0.0
 11
-14.90602238837989
 21
0.6015476843707464
 31
0.0
  0
LINE
  5
2D0
330
1D5
100
AcDbEntity
  8
0
 62
     2
100
AcDbLine
 10
-14.6810223883799
 20
0.6285476843706475
 30
0.0
 11
-14.90602238837989
 21
0.5610476843717183
 31
0.0
  0
LINE
  5
2D1
330
1D5
100
AcDbEntity
  8
0
 62
     2
100
AcDbLine
 10
16.32397761162011
 20
0.6285476843706475
 30
0.0
 11
16.54897761162008
 21
0.6960476843707198
 31
0.0
  0
LINE
  5
2D2
330
1D5
100
AcDbEntity
  8
0
 62
     2
100
AcDbLine
 10
16.54897761162008
 20
0.5610476843717183
 30
0.0
 11
16.32397761162011
 21
0.6285476843706475
 31
0.0
  0
LINE
  5
2D3
330
1D5
100
AcDbEntity
  8
0
 62
     2
100
AcDbLine
 10
16.54897761162008
 20
0.6015476843707464
 30
0.0
 11
16.54897761162008
 21
0.5610476843717183
 31
0.0
  0
LINE
  5
2D4
330
1D5
100
AcDbEntity
  8
0
 62
     2
100
AcDbLine
 10
16.63348548563587
 20
0.6015476843707464
 30
0.0
 11
16.54897761162008
 21
0.6015476843707464
 31
0.0
  0
LINE
  5
2D5
330
1D5
100
AcDbEntity
  8
0
 62
     2
100
AcDbLine
 10
16.63348548563587
 20
0.6555476843707613
 30
0.0
 11
16.63348548563587
 21
0.6015476843707464
 31
0.0
  0
LINE
  5
2D6
330
1D5
100
AcDbEntity
  8
0
 62
     2
100
AcDbLine
 10
16.54897761162008
 20
0.6555476843707613
 30
0.0
 11
16.63348548563587
 21
0.6555476843707613
 31
0.0
  0
LINE
  5
2D7
330
1D5
100
AcDbEntity
  8
0
 62
     2
100
AcDbLine
 10
16.54897761162008
 20
0.6960476843707198
 30
0.0
 11
16.54897761162008
 21
0.6555476843707613
 31
0.0
  0
LINE
  5
2D8
330
1D5
100
AcDbEntity
  8
0
 62
     2
100
AcDbLine
 10
16.32397761162011
 20
10.6472976843707
 30
0.0
 11
16.32397761162011
 21
-9.390202315629348
 31
0.0
  0
LINE
  5
2D9
330
1D5
100
AcDbEntity
  8
0
 62
     7
100
AcDbLine
 10
-14.99053026239564
 20
-9.646133611981255
 30
0.0
 11
-14.86196397980768
 21
-9.646133611981255
 31
0.0
  0
LINE
  5
2DA
330
1D5
100
AcDbEntity
  8
0
 62
     7
100
AcDbLine
 10
-14.99053026239564
 20
-9.646133611981255
 30
0.0
 11
-14.99053026239564
 21
-9.517567329393266
 31
0.0
  0
LINE
  5
2DB
330
1D5
100
AcDbEntity
  8
0
 62
     7
100
AcDbLine
 10
16.63348548563587
 20
-9.646133611981255
 30
0.0
 11
16.50491920304789
 21
-9.646133611981255
 31
0.0
  0
LINE
  5
2DC
330
1D5
100
AcDbEntity
  8
0
 62
     7
100
AcDbLine
 10
16.63348548563587
 20
-9.646133611981255
 30
0.0
 11
16.63348548563587
 21
-9.517567329393266
 31
0.0
  0
LINE
  5
2DD
330
1D5
100
AcDbEntity
  8
0
 62
     2
100
AcDbLine
 10
0.4464776116210905
 20
-9.390202315629347
 30
0.0
 11
0.5016298841247316
 21
-9.527631825295346
 31
0.0
  0
LINE
  5
2DE
330
1D5
100
AcDbEntity
  8
0
 62
     2
100
AcDbLine
 10
0.5016298841247316
 20
-9.527631825295346
 30
0.0
 11
0.4793584692294248
 21
-9.527631825295346
 31
0.0
  0
LINE
  5
2DF
330
1D5
100
AcDbEntity
  8
0
 62
     2
100
AcDbLine
 10
0.4793584692294248
 20
-9.527631825295346
 30
0.0
 11
0.4793584692294248
 21
-9.596133611981235
 31
0.0
  0
LINE
  5
2E0
330
1D5
100
AcDbEntity
  8
0
 62
     2
100
AcDbLine
 10
0.4793584692294248
 20
-9.596133611981235
 30
0.0
 11
0.4135967540118892
 21
-9.596133611981235
 31
0.0
  0
LINE
  5
2E1
330
1D5
100
AcDbEntity
  8
0
 62
     2
100
AcDbLine
 10
0.4135967540118892
 20
-9.596133611981235
 30
0.0
 11
0.4135967540118892
 21
-9.527631825295346
 31
0.0
  0
LINE
  5
2E2
330
1D5
100
AcDbEntity
  8
0
 62
     2
100
AcDbLine
 10
0.4135967540118892
 20
-9.527631825295346
 30
0.0
 11
0.3913253391174496
 21
-9.527631825295346
 31
0.0
  0
LINE
  5
2E3
330
1D5
100
AcDbEntity
  8
0
 62
     2
100
AcDbLine
 10
0.3913253391174496
 20
-9.527631825295346
 30
0.0
 11
0.4464776116210905
 21
-9.390202315629347
 31
0.0
  0
LINE
  5
2E4
330
1D5
100
AcDbEntity
  8
0
 62
     2
100
AcDbLine
 10
10.4755124582449
 20
-8.829602855586454
 30
0.0
 11
11.14087480371634
 21
-8.827053574569356
 31
0.0
  0
ARC
  5
2E5
330
1D5
100
AcDbEntity
  8
0
 62
     7
100
AcDbCircle
 10
14.05959838470199
 20
-6.955785954700594
 30
0.0
 40
0.0481521954585401
100
AcDbArc
 50
37.86751185693018
 51
81.71223351176648
  0
ARC
  5
2E6
330
1D5
100
AcDbEntity
  8
0
 62
     7
100
AcDbCircle
 10
14.05959838470201
 20
-7.148339440987365
 30
0.0
 40
0.048152195458436
100
AcDbArc
 50
278.2877664882203
 51
322.1324881431192
  0
ARC
  5
2E7
330
1D5
100
AcDbEntity
  8
0
 62
     7
100
AcDbCircle
 10
13.96578082010503
 20
-7.028246331829535
 30
0.0
 40
0.1666941652294879
100
AcDbArc
 50
20.07237272006576
 51
37.73476953718296
  0
ARC
  5
2E8
330
1D5
100
AcDbEntity
  8
0
 62
     7
100
AcDbCircle
 10
13.90986838909959
 20
-7.151034365199224
 30
0.0
 40
0.0467349428008189
100
AcDbArc
 50
278.2663769285135
 51
288.1494799970553
  0
ARC
  5
2E9
330
1D5
100
AcDbEntity
  8
0
 62
     7
100
AcDbCircle
 10
13.90964774856374
 20
-7.150636349366704
 30
0.0
 40
0.0471867370789114
100
AcDbArc
 50
288.2710970436603
 51
324.0097032573193
  0
ARC
  5
2EA
330
1D5
100
AcDbEntity
  8
0
 62
     7
100
AcDbCircle
 10
13.90928286847174
 20
-7.150637506755506
 30
0.0
 40
0.0471860458459504
100
AcDbArc
 50
215.9891694338855
 51
261.5424473931008
  0
ARC
  5
2EB
330
1D5
100
AcDbEntity
  8
0
 62
     7
100
AcDbCircle
 10
14.00791734316506
 20
-7.074758450631305
 30
0.0
 40
0.1716335791371005
100
AcDbArc
 50
203.2944976631311
 51
217.7018781217086
  0
ARC
  5
2EC
330
1D5
100
AcDbEntity
  8
0
 62
     7
100
AcDbCircle
 10
14.1530529119379
 20
-7.075879063858426
 30
0.0
 40
0.1666941652294404
100
AcDbArc
 50
203.6064856709514
 51
217.7347695371681
  0
ARC
  5
2ED
330
1D5
100
AcDbEntity
  8
0
 62
     7
100
AcDbCircle
 10
14.05923534734095
 20
-7.148339440987365
 30
0.0
 40
0.0481521954584891
100
AcDbArc
 50
217.8675118568729
 51
261.7122335117441
  0
ARC
  5
2EE
330
1D5
100
AcDbEntity
  8
0
 62
     7
100
AcDbCircle
 10
13.6080608993146
 20
-7.151034365199086
 30
0.0
 40
0.0467349428009637
100
AcDbArc
 50
278.2663769285384
 51
288.1494799970142
  0
ARC
  5
2EF
330
1D5
100
AcDbEntity
  8
0
 62
     7
100
AcDbCircle
 10
13.60784025877882
 20
-7.150636349366704
 30
0.0
 40
0.0471867370788991
100
AcDbArc
 50
288.2710970436153
 51
324.0097032572622
  0
ARC
  5
2F0
330
1D5
100
AcDbEntity
  8
0
 62
     7
100
AcDbCircle
 10
13.60747537868674
 20
-7.150637506755506
 30
0.0
 40
0.0471860458459087
100
AcDbArc
 50
215.9891694339222
 51
261.5424473931263
  0
ARC
  5
2F1
330
1D5
100
AcDbEntity
  8
0
 62
     7
100
AcDbCircle
 10
13.70610985338014
 20
-7.074758450631225
 30
0.0
 40
0.171633579137168
100
AcDbArc
 50
203.2944976631506
 51
217.7018781217257
  0
ARC
  5
2F2
330
1D5
100
AcDbEntity
  8
0
 62
     7
100
AcDbCircle
 10
13.75874400367124
 20
-7.150636349366704
 30
0.0
 40
0.0471867370789203
100
AcDbArc
 50
288.2710970436931
 51
324.0097032572888
  0
ARC
  5
2F3
330
1D5
100
AcDbEntity
  8
0
 62
     7
100
AcDbCircle
 10
13.7583791235793
 20
-7.150637506755506
 30
0.0
 40
0.0471860458459418
100
AcDbArc
 50
215.989169433893
 51
261.5424473930281
  0
ARC
  5
2F4
330
1D5
100
AcDbEntity
  8
0
 62
     7
100
AcDbCircle
 10
13.85701359827252
 20
-7.074758450631305
 30
0.0
 40
0.1716335791370352
100
AcDbArc
 50
203.2944976631406
 51
217.7018781217149
  0
ARC
  5
2F5
330
1D5
100
AcDbEntity
  8
0
 62
     7
100
AcDbCircle
 10
13.75881046202142
 20
-7.151047695918883
 30
0.0
 40
0.0467705453074863
100
AcDbArc
 50
278.450946219455
 51
288.3340492880153
  0
ARC
  5
2F6
330
1D5
100
AcDbEntity
  8
0
 62
     7
100
AcDbCircle
 10
13.45788779363402
 20
-7.148339440987365
 30
0.0
 40
0.0481521954584391
100
AcDbArc
 50
278.2877664882454
 51
322.1324881430986
  0
ARC
  5
2F7
330
1D5
100
AcDbEntity
  8
0
 62
     7
100
AcDbCircle
 10
13.45752475627293
 20
-7.148339440987365
 30
0.0
 40
0.0481521954584428
100
AcDbArc
 50
217.8675118569157
 51
261.7122335117901
  0
ARC
  5
2F8
330
1D5
100
AcDbEntity
  8
0
 62
     7
100
AcDbCircle
 10
13.55569388637083
 20
-6.973387112838086
 30
0.0
 40
0.0326293058294067
100
AcDbArc
 50
195.4374996537218
 51
217.266085219734
  0
ARC
  5
2F9
330
1D5
100
AcDbEntity
  8
0
 62
     7
100
AcDbCircle
 10
13.36407022903704
 20
-7.028246331829535
 30
0.0
 40
0.1666941652294755
100
AcDbArc
 50
16.08103503612599
 51
37.73476953718707
  0
ARC
  5
2FA
330
1D5
100
AcDbEntity
  8
0
 62
     7
100
AcDbCircle
 10
13.53297205738513
 20
-6.990655957901234
 30
0.0
 40
0.0040846483498345
100
AcDbArc
 50
217.47142143047
 51
269.9389984277124
  0
ARC
  5
2FB
330
1D5
100
AcDbEntity
  8
0
 62
     7
100
AcDbCircle
 10
13.90986838909947
 20
-6.953091030489305
 30
0.0
 40
0.0467349428015093
100
AcDbArc
 50
71.85052000305221
 51
81.73362307145447
  0
ARC
  5
2FC
330
1D5
100
AcDbEntity
  8
0
 62
     7
100
AcDbCircle
 10
13.90964774856374
 20
-6.953489046321255
 30
0.0
 40
0.047186737079023
100
AcDbArc
 50
35.99029674275048
 51
71.72890295637002
  0
ARC
  5
2FD
330
1D5
100
AcDbEntity
  8
0
 62
     7
100
AcDbCircle
 10
13.9847263833334
 20
-7.009660535654875
 30
0.0
 40
0.0149046966153371
100
AcDbArc
 50
86.3357265703827
 51
89.99859441773564
  0
ARC
  5
2FE
330
1D5
100
AcDbEntity
  8
0
 62
     7
100
AcDbCircle
 10
13.98473103500501
 20
-6.990651853499525
 30
0.0
 40
0.0040887526829529
100
AcDbArc
 50
215.1153111297428
 51
269.9399397719267
  0
ARC
  5
2FF
330
1D5
100
AcDbEntity
  8
0
 62
     7
100
AcDbCircle
 10
14.00803707058232
 20
-6.973089338770416
 30
0.0
 40
0.0332764401266439
100
AcDbArc
 50
195.3487622162065
 51
217.3510090530768
  0
ARC
  5
300
330
1D5
100
AcDbEntity
  8
0
 62
     7
100
AcDbCircle
 10
13.81101328759483
 20
-7.029366945056654
 30
0.0
 40
0.1716335791371288
100
AcDbArc
 50
16.05191975297118
 51
37.70187812172347
  0
ARC
  5
301
330
1D5
100
AcDbEntity
  8
0
 62
     7
100
AcDbCircle
 10
13.83421122325823
 20
-6.990668031065204
 30
0.0
 40
0.0040699409717991
100
AcDbArc
 50
277.9651544603338
 51
324.9768247747593
  0
ARC
  5
302
330
1D5
100
AcDbEntity
  8
0
 62
     7
100
AcDbCircle
 10
13.90928286847176
 20
-6.953487888932453
 30
0.0
 40
0.0471860458459442
100
AcDbArc
 50
98.45755260693337
 51
144.010830566065
  0
ARC
  5
303
330
1D5
100
AcDbEntity
  8
0
 62
     7
100
AcDbCircle
 10
13.81089356017764
 20
-6.973089338770494
 30
0.0
 40
0.0332764401265524
100
AcDbArc
 50
322.6489909469508
 51
344.6512377839084
  0
ARC
  5
304
330
1D5
100
AcDbEntity
  8
0
 62
     7
100
AcDbCircle
 10
14.00791734316508
 20
-7.029366945056654
 30
0.0
 40
0.1716335791371327
100
AcDbArc
 50
142.2981218782787
 51
163.948080247029
  0
ARC
  5
305
330
1D5
100
AcDbEntity
  8
0
 62
     7
100
AcDbCircle
 10
13.98419605938003
 20
-6.990713457050453
 30
0.0
 40
0.0040140140895403
100
AcDbArc
 50
291.6802627121801
 51
322.7894052511354
  0
ARC
  5
306
330
1D5
100
AcDbEntity
  8
0
 62
     7
100
AcDbCircle
 10
13.96142925460416
 20
-6.973387112838153
 30
0.0
 40
0.0326293058293184
100
AcDbArc
 50
322.7339147802708
 51
344.5625003463794
  0
ARC
  5
307
330
1D5
100
AcDbEntity
  8
0
 62
     7
100
AcDbCircle
 10
14.15305291193795
 20
-7.028246331829535
 30
0.0
 40
0.1666941652295451
100
AcDbArc
 50
142.2652304628215
 51
163.918964963877
  0
ARC
  5
308
330
1D5
100
AcDbEntity
  8
0
 62
     7
100
AcDbCircle
 10
14.05923534734095
 20
-6.955785954700525
 30
0.0
 40
0.0481521954584404
100
AcDbArc
 50
98.28776648825588
 51
142.132488143127
  0
ARC
  5
309
330
1D5
100
AcDbEntity
  8
0
 62
     7
100
AcDbCircle
 10
13.60806089931465
 20
-6.953091030488574
 30
0.0
 40
0.0467349428007685
100
AcDbArc
 50
71.8505200029493
 51
81.73362307147234
  0
ARC
  5
30A
330
1D5
100
AcDbEntity
  8
0
 62
     7
100
AcDbCircle
 10
13.60784025877879
 20
-6.953489046321255
 30
0.0
 40
0.04718673707899
100
AcDbArc
 50
35.99029674277963
 51
71.72890295637002
  0
ARC
  5
30B
330
1D5
100
AcDbEntity
  8
0
 62
     7
100
AcDbCircle
 10
13.6829188935484
 20
-7.009660535655445
 30
0.0
 40
0.0149046966159067
100
AcDbArc
 50
86.33572657048871
 51
89.99859441754448
  0
ARC
  5
30C
330
1D5
100
AcDbEntity
  8
0
 62
     7
100
AcDbCircle
 10
13.68292354521998
 20
-6.990651853499596
 30
0.0
 40
0.0040887526828404
100
AcDbArc
 50
215.1153111296648
 51
269.9399397731704
  0
ARC
  5
30D
330
1D5
100
AcDbEntity
  8
0
 62
     7
100
AcDbCircle
 10
13.7062295807974
 20
-6.973089338770416
 30
0.0
 40
0.0332764401267125
100
AcDbArc
 50
195.3487622161741
 51
217.3510090530453
  0
ARC
  5
30E
330
1D5
100
AcDbEntity
  8
0
 62
     7
100
AcDbCircle
 10
13.50920579780986
 20
-7.029366945056654
 30
0.0
 40
0.171633579137139
100
AcDbArc
 50
16.0519197529702
 51
37.70187812171513
  0
ARC
  5
30F
330
1D5
100
AcDbEntity
  8
0
 62
     7
100
AcDbCircle
 10
13.53240373347313
 20
-6.990668031065064
 30
0.0
 40
0.0040699409719629
100
AcDbArc
 50
277.9651544625614
 51
324.9768247744331
  0
ARC
  5
310
330
1D5
100
AcDbEntity
  8
0
 62
     7
100
AcDbCircle
 10
13.60747537868679
 20
-6.953487888932453
 30
0.0
 40
0.0471860458459429
100
AcDbArc
 50
98.4575526069227
 51
144.0108305660371
  0
ARC
  5
311
330
1D5
100
AcDbEntity
  8
0
 62
     7
100
AcDbCircle
 10
13.50908607039259
 20
-6.973089338770416
 30
0.0
 40
0.033276440126687
100
AcDbArc
 50
322.6489909469547
 51
344.6512377838259
  0
ARC
  5
312
330
1D5
100
AcDbEntity
  8
0
 62
     7
100
AcDbCircle
 10
13.70610985338011
 20
-7.029366945056596
 30
0.0
 40
0.1716335791370565
100
AcDbArc
 50
142.2981218782845
 51
163.9480802470491
  0
ARC
  5
313
330
1D5
100
AcDbEntity
  8
0
 62
     7
100
AcDbCircle
 10
13.75874400367124
 20
-6.953489046321255
 30
0.0
 40
0.0471867370789885
100
AcDbArc
 50
35.9902967427809
 51
71.72890295633725
  0
ARC
  5
314
330
1D5
100
AcDbEntity
  8
0
 62
     7
100
AcDbCircle
 10
13.83382263844123
 20
-7.009660535645565
 30
0.0
 40
0.0149046966060238
100
AcDbArc
 50
86.33572656943794
 51
89.99859441873171
  0
ARC
  5
315
330
1D5
100
AcDbEntity
  8
0
 62
     7
100
AcDbCircle
 10
13.83382729011246
 20
-6.990651853499596
 30
0.0
 40
0.0040887526828564
100
AcDbArc
 50
215.1153111295071
 51
269.9399397735936
  0
ARC
  5
316
330
1D5
100
AcDbEntity
  8
0
 62
     7
100
AcDbCircle
 10
13.85713332568988
 20
-6.973089338770416
 30
0.0
 40
0.0332764401266748
100
AcDbArc
 50
195.3487622161919
 51
217.3510090530341
  0
ARC
  5
317
330
1D5
100
AcDbEntity
  8
0
 62
     7
100
AcDbCircle
 10
13.66010954270233
 20
-7.029366945056654
 30
0.0
 40
0.1716335791371698
100
AcDbArc
 50
16.05191975296725
 51
37.70187812171295
  0
ARC
  5
318
330
1D5
100
AcDbEntity
  8
0
 62
     7
100
AcDbCircle
 10
13.68330747836571
 20
-6.990668031065204
 30
0.0
 40
0.0040699409718087
100
AcDbArc
 50
277.9651544612997
 51
324.9768247753191
  0
ARC
  5
319
330
1D5
100
AcDbEntity
  8
0
 62
     7
100
AcDbCircle
 10
13.7583791235793
 20
-6.953487888932453
 30
0.0
 40
0.0471860458459489
100
AcDbArc
 50
98.45755260697178
 51
144.0108305660371
  0
ARC
  5
31A
330
1D5
100
AcDbEntity
  8
0
 62
     7
100
AcDbCircle
 10
13.65998981528505
 20
-6.973089338770416
 30
0.0
 40
0.03327644012668
100
AcDbArc
 50
322.6489909469453
 51
344.6512377838259
  0
ARC
  5
31B
330
1D5
100
AcDbEntity
  8
0
 62
     7
100
AcDbCircle
 10
13.85701359827262
 20
-7.029366945056654
 30
0.0
 40
0.1716335791371566
100
AcDbArc
 50
142.2981218782849
 51
163.9480802470315
  0
ARC
  5
31C
330
1D5
100
AcDbEntity
  8
0
 62
     7
100
AcDbCircle
 10
13.75896464420722
 20
-6.953091030488224
 30
0.0
 40
0.0467349428004044
100
AcDbArc
 50
71.85052000293362
 51
81.73362307154429
  0
ARC
  5
31D
330
1D5
100
AcDbEntity
  8
0
 62
     7
100
AcDbCircle
 10
13.45788779363402
 20
-6.955785954700594
 30
0.0
 40
0.0481521954585008
100
AcDbArc
 50
37.86751185696652
 51
81.71223351176648
  0
ARC
  5
31E
330
1D5
100
AcDbEntity
  8
0
 62
     7
100
AcDbCircle
 10
13.45752475627298
 20
-6.955785954700594
 30
0.0
 40
0.0481521954585117
100
AcDbArc
 50
98.28776648826698
 51
142.132488143062
  0
ARC
  5
31F
330
1D5
100
AcDbEntity
  8
0
 62
     7
100
AcDbCircle
 10
13.55134232086991
 20
-7.075879063858426
 30
0.0
 40
0.1666941652294551
100
AcDbArc
 50
212.7163762925749
 51
217.7347695371723
  0
ARC
  5
320
330
1D5
100
AcDbEntity
  8
0
 62
     7
100
AcDbCircle
 10
13.55134232086995
 20
-7.028246331829535
 30
0.0
 40
0.1666941652295212
100
AcDbArc
 50
142.2652304628152
 51
161.1040310866627
  0
ARC
  5
321
330
1D5
100
AcDbEntity
  8
0
 62
     7
100
AcDbCircle
 10
13.96578082010506
 20
-7.075879063858426
 30
0.0
 40
0.1666941652294619
100
AcDbArc
 50
322.2652304628295
 51
333.9754445906263
  0
ARC
  5
322
330
1D5
100
AcDbEntity
  8
0
 62
     2
100
AcDbCircle
 10
13.36407022903704
 20
-7.075879063858426
 30
0.0
 40
0.1666941652294704
100
AcDbArc
 50
322.2652304628317
 51
336.393514329054
  0
ARC
  5
323
330
1D5
100
AcDbEntity
  8
0
 62
     7
100
AcDbCircle
 10
13.50920579780986
 20
-7.074758450631305
 30
0.0
 40
0.1716335791371132
100
AcDbArc
 50
322.2981218783036
 51
336.7055023368716
  0
ARC
  5
324
330
1D5
100
AcDbEntity
  8
0
 62
     7
100
AcDbCircle
 10
13.66010954270237
 20
-7.074758450631305
 30
0.0
 40
0.1716335791370977
100
AcDbArc
 50
322.2981218782996
 51
336.7055023368648
  0
ARC
  5
325
330
1D5
100
AcDbEntity
  8
0
 62
     7
100
AcDbCircle
 10
13.81101328759483
 20
-7.074758450631305
 30
0.0
 40
0.1716335791370809
100
AcDbArc
 50
322.2981218782953
 51
336.7055023368713
  0
LWPOLYLINE
  5
326
330
1D5
100
AcDbEntity
  8
0
 62
     7
100
AcDbPolyline
 90
        8
 70
     0
 43
0.0
 10
14.34016228592601
 20
-6.972763407285475
 42
-0.0008857385392496
 10
14.3901178613307
 20
-6.974465561380654
 42
-0.003892880930076
 10
14.53766354664881
 20
-6.980905365105625
 42
-0.0045948372198531
 10
14.661336510559
 20
-6.988407114527346
 42
-0.0114555989220624
 10
14.75810639232681
 20
-6.997412552685515
 42
-0.0013976542365962
 10
14.82264526592726
 20
-7.005075552243054
 42
-0.0833068437945569
 10
14.85968371367349
 20
-7.016641456771123
 42
-0.6323208390035207
 10
14.85968371367349
 20
-7.027272469517734
  0
TEXT
  5
327
330
1D5
100
AcDbEntity
  8
0
 62
     3
100
AcDbText
 10
14.34272761162003
 20
9.884172684371868
 30
0.0
 40
0.1562499999999999
  1
G DOOLITTLE
 41
0.5400000000000001
  7
SIMPLEX
 72
     1
 11
14.73647761162003
 21
9.962297684371868
 31
0.0
100
AcDbText
 73
     2
  0
TEXT
  5
328
330
1D5
100
AcDbEntity
  8
0
 62
    13
100
AcDbText
 10
15.41873207590574
 20
9.884172684371868
 30
0.0
 40
0.1562499999999999
  1
XXXXXXX
 41
0.675
  7
SIMPLEX
 72
     1
 11
15.75522761162003
 21
9.962297684371868
 31
0.0
100
AcDbText
 73
     2
  0
TEXT
  5
329
330
1D5
100
AcDbEntity
  8
0
 62
    13
100
AcDbText
 10
15.41873207590574
 20
9.63417268437186
 30
0.0
 40
0.1562499999999999
  1
XXXXXXX
 41
0.675
  7
SIMPLEX
 72
     1
 11
15.75522761162003
 21
9.71229768437186
 31
0.0
100
AcDbText
 73
     2
  0
TEXT
  5
32A
330
1D5
100
AcDbEntity
  8
0
 62
     3
100
AcDbText
 10
14.3829061830486
 20
9.63417268437186
 30
0.0
 40
0.1562499999999999
  1
24 APR 98
 41
0.5400000000000001
  7
SIMPLEX
 72
     1
 11
14.73647761162003
 21
9.71229768437186
 31
0.0
100
AcDbText
 73
     2
  0
TEXT
  5
32B
330
1D5
100
AcDbEntity
  8
0
 62
     3
100
AcDbText
 10
12.31835261162012
 20
10.45292268437068
 30
0.0
 40
0.09
  1
REVISIONS
 41
1.125
  7
SIMPLEX
 72
     1
 11
12.68960261162011
 21
10.49792268437068
 31
0.0
100
AcDbText
 73
     2
  0
TEXT
  5
32C
330
1D5
100
AcDbEntity
  8
0
 62
     3
100
AcDbText
 10
9.169602611620099
 20
10.18229768437071
 30
0.0
 40
0.09
  1
ZONE
 41
1.125
  7
SIMPLEX
 72
     1
 11
9.355227611620099
 21
10.22729768437071
 31
0.0
100
AcDbText
 73
     2
  0
TEXT
  5
32D
330
1D5
100
AcDbEntity
  8
0
 62
     3
100
AcDbText
 10
9.71690618304866
 20
10.18229768437071
 30
0.0
 40
0.09
  1
REV.
 41
0.9
  7
SIMPLEX
 72
     1
 11
9.836477611620088
 21
10.22729768437071
 31
0.0
100
AcDbText
 73
     2
  0
TEXT
  5
32E
330
1D5
100
AcDbEntity
  8
0
 62
     3
100
AcDbText
 10
11.68683475447823
 20
10.18229768437071
 30
0.0
 40
0.09
  1
DESCRIPTION
 41
1.125
  7
SIMPLEX
 72
     1
 11
12.15210261162108
 21
10.22729768437071
 31
0.0
100
AcDbText
 73
     2
  0
TEXT
  5
32F
330
1D5
100
AcDbEntity
  8
0
 62
     3
100
AcDbText
 10
14.49058475447723
 20
10.18229768437071
 30
0.0
 40
0.09
  1
DRAWN
 41
1.125
  7
SIMPLEX
 72
     1
 11
14.73647761162009
 21
10.22729768437071
 31
0.0
100
AcDbText
 73
     2
  0
TEXT
  5
330
330
1D5
100
AcDbEntity
  8
0
 62
     3
100
AcDbText
 10
15.43433475447824
 20
10.18229768437071
 30
0.0
 40
0.09
  1
CHECKED
 41
1.125
  7
SIMPLEX
 72
     1
 11
15.7646026116211
 21
10.22729768437071
 31
0.0
100
AcDbText
 73
     2
  0
TEXT
  5
331
330
1D5
100
AcDbEntity
  8
0
 62
     3
100
AcDbText
 10
10.11147761162012
 20
9.759172684370762
 30
0.0
 40
0.1562499999999999
  1
ADDED 2X ø.125 X .35 DEEP ON ø2.125
 41
0.675
  7
SIMPLEX
 11
10.11147761162012
 21
9.837297684370762
 31
0.0
100
AcDbText
 73
     2
  0
TEXT
  5
332
330
1D5
100
AcDbEntity
  8
0
 62
     3
100
AcDbText
 10
9.782906183048659
 20
9.759172684370762
 30
0.0
 40
0.1562499999999999
  1
A
 41
0.9
  7
SIMPLEX
 72
     1
 11
9.836477611620088
 21
9.837297684370762
 31
0.0
100
AcDbText
 73
     2
  0
TEXT
  5
333
330
1D5
100
AcDbEntity
  8
0
 62
    13
100
AcDbText
 10
9.269848147334386
 20
9.759172684370762
 30
0.0
 40
0.1562499999999999
  1
ZN
 41
0.675
  7
SIMPLEX
 72
     1
 11
9.355227611620099
 21
9.837297684370762
 31
0.0
100
AcDbText
 73
     2
  0
TEXT
  5
334
330
1D5
100
AcDbEntity
  8
0
 62
     3
100
AcDbText
 10
6.238909808504616
 20
-6.980278621418114
 30
0.0
 40
0.075
  1
DIM & TOL PER ANSI Y14.5 .
 41
1.125
  7
SIMPLEX
 11
6.238909808504616
 21
-6.905278621418114
 31
0.0
100
AcDbText
 73
     3
  0
TEXT
  5
335
330
1D5
100
AcDbEntity
  8
0
 62
     3
100
AcDbText
 10
6.238909808504616
 20
-7.087774815046975
 30
0.0
 40
0.0800000000000001
  1
UNLESS OTHERWISE SPECIFIED
 41
1.012499999999999
  7
SIMPLEX
100
AcDbText
  0
TEXT
  5
336
330
1D5
100
AcDbEntity
  8
0
 62
     3
100
AcDbText
 10
6.238909808504616
 20
-7.203774815046974
 30
0.0
 40
0.0800000000000001
  1
DIMENSIONS ARE IN INCHES
 41
1.012499999999999
  7
SIMPLEX
100
AcDbText
  0
TEXT
  5
337
330
1D5
100
AcDbEntity
  8
0
 62
     3
100
AcDbText
 10
6.238909808504616
 20
-7.319774815046976
 30
0.0
 40
0.0800000000000001
  1
TOLERANCES ARE:
 41
1.012499999999999
  7
SIMPLEX
100
AcDbText
  0
TEXT
  5
338
330
1D5
100
AcDbEntity
  8
0
 62
     3
100
AcDbText
 10
6.366189792696012
 20
-7.455973883811654
 30
0.0
 40
0.0800000000000001
  1
FRACTIONS   DECIMAL    ANGLES
 41
0.9
  7
SIMPLEX
 72
     1
 11
7.312475506981726
 21
-7.415973883811654
 31
0.0
100
AcDbText
 73
     2
  0
TEXT
  5
339
330
1D5
100
AcDbEntity
  8
0
 62
     3
100
AcDbText
 10
7.472909366849121
 20
-7.609899842245905
 30
0.0
 40
0.09
  1
.015
 41
0.9
  7
SIMPLEX
 11
7.472909366849121
 21
-7.564899842245905
 31
0.0
100
AcDbText
 73
     2
  0
TEXT
  5
33A
330
1D5
100
AcDbEntity
  8
0
 62
     3
100
AcDbText
 10
7.472909366849121
 20
-7.724847735528667
 30
0.0
 40
0.09
  1
.005
 41
0.9
  7
SIMPLEX
 11
7.472909366849121
 21
-7.679847735528667
 31
0.0
100
AcDbText
 73
     2
  0
TEXT
  5
33B
330
1D5
100
AcDbEntity
  8
0
 62
    13
100
AcDbText
 10
7.951361565367251
 20
-7.609899842245905
 30
0.0
 40
0.09
  1
X.XX °
 41
0.9
  7
SIMPLEX
 11
7.951361565367251
 21
-7.564899842245905
 31
0.0
100
AcDbText
 73
     2
  0
TEXT
  5
33C
330
1D5
100
AcDbEntity
  8
0
 62
    13
100
AcDbText
 10
6.456127649443009
 20
-7.609899842245905
 30
0.0
 40
0.09
  1
 1/32
 41
0.9
  7
SIMPLEX
 11
6.456127649443009
 21
-7.564899842245905
 31
0.0
100
AcDbText
 73
     2
  0
TEXT
  5
33D
330
1D5
100
AcDbEntity
  8
0
 62
     3
100
AcDbText
 10
7.018258772336836
 20
-7.724847735528667
 30
0.0
 40
0.09
  1
.XXX
 41
0.9
  7
SIMPLEX
 11
7.018258772336836
 21
-7.679847735528667
 31
0.0
100
AcDbText
 73
     2
  0
TEXT
  5
33E
330
1D5
100
AcDbEntity
  8
0
 62
     3
100
AcDbText
 10
7.018258772336836
 20
-7.609899842245905
 30
0.0
 40
0.09
  1
.XX
 41
0.9
  7
SIMPLEX
 11
7.018258772336836
 21
-7.564899842245905
 31
0.0
100
AcDbText
 73
     2
  0
TEXT
  5
33F
330
1D5
100
AcDbEntity
  8
0
 62
     3
100
AcDbText
 10
6.248977611621121
 20
-7.936452315628554
 30
0.0
 40
0.0800000000000001
  1
MATERIAL
 41
0.9
  7
SIMPLEX
 11
6.248977611621121
 21
-7.896452315628554
 31
0.0
100
AcDbText
 73
     2
  0
TEXT
  5
340
330
1D5
100
AcDbEntity
  8
0
 62
     3
100
AcDbText
 10
6.162790373155411
 20
-8.162802929090204
 30
0.0
 40
0.1562499999999999
  1
ALUMINUM 6061-T6511
 41
0.5400000000000001
  7
SIMPLEX
100
AcDbText
  0
TEXT
  5
341
330
1D5
100
AcDbEntity
  8
0
 62
     3
100
AcDbText
 10
6.162790373155411
 20
-8.373740429090204
 30
0.0
 40
0.1562499999999999
  1
TUBE, 2.127 MIN O.D. .224 WALL
 41
0.5400000000000001
  7
SIMPLEX
100
AcDbText
  0
TEXT
  5
342
330
1D5
100
AcDbEntity
  8
0
 62
     3
100
AcDbText
 10
6.233977611620827
 20
-8.616452315628524
 30
0.0
 40
0.0800000000000001
  1
FINISH
 41
1.012499999999999
  7
SIMPLEX
 11
6.233977611620827
 21
-8.576452315628525
 31
0.0
100
AcDbText
 73
     2
  0
TEXT
  5
343
330
1D5
100
AcDbEntity
  8
0
 62
     3
100
AcDbText
 10
7.050476372919112
 20
-8.673030715502322
 30
0.0
 40
0.0800000000000001
  1
64
 41
1.012499999999999
  7
SIMPLEX
 72
     1
 11
7.117976372919112
 21
-8.633030715502323
 31
0.0
100
AcDbText
 73
     2
  0
TEXT
  5
344
330
1D5
100
AcDbEntity
  8
0
 62
     3
100
AcDbText
 10
7.954226777972086
 20
-8.576506835168125
 30
0.0
 40
0.0800000000000001
  1
UNLESS
 41
0.9
  7
SIMPLEX
 72
     1
 11
8.149655349400658
 21
-8.536506835168125
 31
0.0
100
AcDbText
 73
     2
  0
TEXT
  5
345
330
1D5
100
AcDbEntity
  8
0
 62
     3
100
AcDbText
 10
7.863369635114944
 20
-8.687605800193084
 30
0.0
 40
0.0800000000000001
  1
OTHERWISE
 41
0.9
  7
SIMPLEX
 72
     1
 11
8.149655349400658
 21
-8.647605800193085
 31
0.0
100
AcDbText
 73
     2
  0
TEXT
  5
346
330
1D5
100
AcDbEntity
  8
0
 62
     3
100
AcDbText
 10
7.986798206543515
 20
-8.794260806617073
 30
0.0
 40
0.0800000000000001
  1
NOTED
 41
0.9
  7
SIMPLEX
 72
     1
 11
8.149655349400658
 21
-8.754260806617073
 31
0.0
100
AcDbText
 73
     2
  0
TEXT
  5
347
330
1D5
100
AcDbEntity
  8
0
 62
     3
100
AcDbText
 10
6.390060083198084
 20
-8.966458736666965
 30
0.0
 40
0.0800000000000001
  1
DEBURR & BREAK ALL SHARP EDGES
 41
0.9
  7
SIMPLEX
 72
     1
 11
7.428917226055228
 21
-8.926458736666965
 31
0.0
100
AcDbText
 73
     2
  0
TEXT
  5
348
330
1D5
100
AcDbEntity
  8
0
 62
     7
100
AcDbText
 10
6.460948476055039
 20
-9.244035008070945
 30
0.0
 40
0.125
  1
DO NOT SCALE DRAWING
 41
0.7875
  7
COMPLEX
 72
     1
 11
7.428917226055038
 21
-9.181535008070945
 31
0.0
100
AcDbText
 73
     2
  0
TEXT
  5
349
330
1D5
100
AcDbEntity
  8
0
 62
     2
100
AcDbText
 10
12.55194022070704
 20
-8.055691785418295
 30
0.0
 40
0.1875
  1
POLORIZED TARGET
 41
0.675
  7
SIMPLEX
100
AcDbText
  0
TEXT
  5
34A
330
1D5
100
AcDbEntity
  8
0
 62
     2
100
AcDbText
 10
12.55194022070704
 20
-8.308816785418295
 30
0.0
 40
0.1875
  1
TARGET GUIDE INSERT
 41
0.675
  7
SIMPLEX
100
AcDbText
  0
TEXT
  5
34B
330
1D5
100
AcDbEntity
  8
0
 62
     2
100
AcDbText
 10
12.75057241933965
 20
-8.966282132700255
 30
0.0
 40
0.1875
  1
67246-D-56004
 41
1.012499999999999
  7
SIMPLEX
 72
     1
 11
13.96195634791108
 21
-8.872532132700255
 31
0.0
100
AcDbText
 73
     2
  0
TEXT
  5
34C
330
1D5
100
AcDbEntity
  8
0
 62
     3
100
AcDbText
 10
15.97930150941335
 20
-9.016282132700265
 30
0.0
 40
0.1875
  1
A
 41
0.9
  7
SIMPLEX
 72
     1
 11
16.04358722369907
 21
-8.922532132700265
 31
0.0
100
AcDbText
 73
     2
  0
TEXT
  5
34D
330
1D5
100
AcDbEntity
  8
0
 62
     3
100
AcDbText
 10
16.03019436655621
 20
-9.294660284102285
 30
0.0
 40
0.125
  1
1
 41
0.9
  7
SIMPLEX
 72
     1
 11
16.04358722369907
 21
-9.232160284102285
 31
0.0
100
AcDbText
 73
     2
  0
TEXT
  5
34E
330
1D5
100
AcDbEntity
  8
0
 62
     3
100
AcDbText
 10
15.32748641484821
 20
-9.294660284102285
 30
0.0
 40
0.125
  1
1
 41
0.9
  7
SIMPLEX
 72
     1
 11
15.34087927199107
 21
-9.232160284102285
 31
0.0
100
AcDbText
 73
     2
  0
TEXT
  5
34F
330
1D5
100
AcDbEntity
  8
0
 62
     3
100
AcDbText
 10
13.67133134791107
 20
-9.294660284102285
 30
0.0
 40
0.125
  1
N/A
 41
0.7874999999999999
  7
SIMPLEX
 72
     1
 11
13.81195634791108
 21
-9.232160284102285
 31
0.0
100
AcDbText
 73
     2
  0
TEXT
  5
350
330
1D5
100
AcDbEntity
  8
0
 62
     3
100
AcDbText
 10
11.56297356456627
 20
-9.309314670059485
 30
0.0
 40
0.0900000000000001
  1
FULL
 41
0.9
  7
SIMPLEX
 72
     1
 11
11.6960449931377
 21
-9.264314670059485
 31
0.0
100
AcDbText
 73
     2
  0
TEXT
  5
351
330
1D5
100
AcDbEntity
  8
0
 62
     3
100
AcDbText
 10
8.598356581776132
 20
-7.194935490052234
 30
0.0
 40
0.1562499999999999
  1
/wbs/6/mjf/hall_c
 41
0.9
  7
SIMPLEX
100
AcDbText
  0
TEXT
  5
352
330
1D5
100
AcDbEntity
  8
0
 62
     3
100
AcDbText
 10
8.598356581776132
 20
-7.405872990052234
 30
0.0
 40
0.1562499999999999
  1
/67240/67246/d56004
 41
0.9
  7
SIMPLEX
100
AcDbText
  0
TEXT
  5
353
330
1D5
100
AcDbEntity
  8
0
 62
     3
100
AcDbText
 10
10.51091604946692
 20
-8.165031883194165
 30
0.0
 40
0.125
  1
7 APR 98
 41
0.585
  7
SIMPLEX
 72
     1
 11
10.78252319232406
 21
-8.102531883194165
 31
0.0
100
AcDbText
 73
     2
  0
TEXT
  5
354
330
1D5
100
AcDbEntity
  8
0
 62
     3
100
AcDbText
 10
9.148885458197087
 20
-8.165031883194165
 30
0.0
 40
0.125
  1
G DOOLITTLE
 41
0.7874999999999999
  7
SIMPLEX
 72
     1
 11
9.608260458197086
 21
-8.102531883194165
 31
0.0
100
AcDbText
 73
     2
  0
TEXT
  5
355
330
1D5
100
AcDbEntity
  8
0
 62
    13
100
AcDbText
 10
10.75814819232407
 20
-9.304535728540233
 30
0.0
 40
0.125
  1
X
 41
0.585
  7
SIMPLEX
 72
     1
 11
10.78252319232406
 21
-9.242035728540233
 31
0.0
100
AcDbText
 73
     2
  0
TEXT
  5
356
330
1D5
100
AcDbEntity
  8
0
 62
    13
100
AcDbText
 10
10.75814819232407
 20
-8.924701113425285
 30
0.0
 40
0.125
  1
X
 41
0.585
  7
SIMPLEX
 72
     1
 11
10.78252319232406
 21
-8.862201113425285
 31
0.0
100
AcDbText
 73
     2
  0
TEXT
  5
357
330
1D5
100
AcDbEntity
  8
0
 62
     3
100
AcDbText
 10
10.48305890660978
 20
-8.544866498310264
 30
0.0
 40
0.125
  1
10 APR 98
 41
0.585
  7
SIMPLEX
 72
     1
 11
10.78252319232406
 21
-8.482366498310264
 31
0.0
100
AcDbText
 73
     2
  0
TEXT
  5
358
330
1D5
100
AcDbEntity
  8
0
 62
    13
100
AcDbText
 10
9.575447958197086
 20
-9.304535728540233
 30
0.0
 40
0.125
  1
X
 41
0.7874999999999999
  7
SIMPLEX
 72
     1
 11
9.608260458197086
 21
-9.242035728540233
 31
0.0
100
AcDbText
 73
     2
  0
TEXT
  5
359
330
1D5
100
AcDbEntity
  8
0
 62
     3
100
AcDbText
 10
9.467635458197086
 20
-8.924701113425285
 30
0.0
 40
0.125
  1
N/A
 41
0.7874999999999999
  7
SIMPLEX
 72
     1
 11
9.608260458197086
 21
-8.862201113425285
 31
0.0
100
AcDbText
 73
     2
  0
TEXT
  5
35A
330
1D5
100
AcDbEntity
  8
0
 62
     3
100
AcDbText
 10
9.188729208197086
 20
-8.544866498310264
 30
0.0
 40
0.125
  1
BUELTMANN
 41
0.7874999999999999
  7
SIMPLEX
 72
     1
 11
9.608260458197086
 21
-8.482366498310264
 31
0.0
100
AcDbText
 73
     2
  0
TEXT
  5
35B
330
1D5
100
AcDbEntity
  8
0
 62
     3
100
AcDbText
 10
12.25425787464424
 20
-9.225002176970305
 30
0.0
 40
0.09
  1
USED ON ASSY NO.
 41
0.6300000000000001
  7
SIMPLEX
 11
12.25425787464424
 21
-9.180002176970305
 31
0.0
100
AcDbText
 73
     2
  0
TEXT
  5
35C
330
1D5
100
AcDbEntity
  8
0
 62
     3
100
AcDbText
 10
15.64848487446707
 20
-9.225734328179276
 30
0.0
 40
0.09
  1
OF
 41
1.012499999999999
  7
SIMPLEX
 11
15.64848487446707
 21
-9.180734328179276
 31
0.0
100
AcDbText
 73
     2
  0
TEXT
  5
35D
330
1D5
100
AcDbEntity
  8
0
 62
     3
100
AcDbText
 10
8.732005554741151
 20
-9.124483776118244
 30
0.0
 40
0.09
  1
APPROVED
 41
0.9
  7
SIMPLEX
 11
8.732005554741151
 21
-9.079483776118244
 31
0.0
100
AcDbText
 73
     2
  0
TEXT
  5
35E
330
1D5
100
AcDbEntity
  8
0
 62
     3
100
AcDbText
 10
8.732005554741151
 20
-8.744649161003293
 30
0.0
 40
0.09
  1
APPROVED
 41
0.9
  7
SIMPLEX
 11
8.732005554741151
 21
-8.699649161003293
 31
0.0
100
AcDbText
 73
     2
  0
TEXT
  5
35F
330
1D5
100
AcDbEntity
  8
0
 62
     3
100
AcDbText
 10
8.732005554741151
 20
-8.364814545887265
 30
0.0
 40
0.09
  1
CHECKED
 41
0.9
  7
SIMPLEX
 11
8.732005554741151
 21
-8.319814545887265
 31
0.0
100
AcDbText
 73
     2
  0
TEXT
  5
360
330
1D5
100
AcDbEntity
  8
0
 62
     3
100
AcDbText
 10
8.732005554741151
 20
-7.984979930772324
 30
0.0
 40
0.09
  1
DRAWN
 41
0.9900000000000003
  7
SIMPLEX
 11
8.732005554741151
 21
-7.939979930772324
 31
0.0
100
AcDbText
 73
     2
  0
TEXT
  5
361
330
1D5
100
AcDbEntity
  8
0
 62
     3
100
AcDbText
 10
14.61210447423308
 20
-9.225734328179276
 30
0.0
 40
0.09
  1
SHEET
 41
1.012499999999999
  7
SIMPLEX
 11
14.61210447423308
 21
-9.180734328179276
 31
0.0
100
AcDbText
 73
     2
  0
TEXT
  5
362
330
1D5
100
AcDbEntity
  8
0
 62
     3
100
AcDbText
 10
11.2318286057763
 20
-9.169292690761194
 30
0.0
 40
0.05
  1
SCALE
 41
1.012499999999999
  7
SIMPLEX
 11
11.2318286057763
 21
-9.144292690761194
 31
0.0
100
AcDbText
 73
     2
  0
TEXT
  5
363
330
1D5
100
AcDbEntity
  8
0
 62
     3
100
AcDbText
 10
15.90906936655621
 20
-8.744649161003293
 30
0.0
 40
0.09
  1
REV.
 41
1.012499999999999
  7
SIMPLEX
 72
     1
 11
16.04358722369907
 21
-8.699649161003293
 31
0.0
100
AcDbText
 73
     2
  0
TEXT
  5
364
330
1D5
100
AcDbEntity
  8
0
 62
     3
100
AcDbText
 10
11.57814114705707
 20
-8.744649161003293
 30
0.0
 40
0.09
  1
DWG. NO.
 41
1.012499999999999
  7
SIMPLEX
 11
11.57814114705707
 21
-8.699649161003293
 31
0.0
100
AcDbText
 73
     2
  0
TEXT
  5
365
330
1D5
100
AcDbEntity
  8
0
 62
     7
100
AcDbText
 10
11.29525580791049
 20
-9.006211314883325
 30
0.0
 40
0.1875
  1
D
 41
0.9
  7
COMPLEX
 72
     1
 11
11.36355937933906
 21
-8.912461314883325
 31
0.0
100
AcDbText
 73
     2
  0
TEXT
  5
366
330
1D5
100
AcDbEntity
  8
0
 62
     3
100
AcDbText
 10
11.24591652219621
 20
-8.744649161003293
 30
0.0
 40
0.09
  1
SIZE
 41
0.9
  7
SIMPLEX
 72
     1
 11
11.36355937933906
 21
-8.699649161003293
 31
0.0
100
AcDbText
 73
     2
  0
TEXT
  5
367
330
1D5
100
AcDbEntity
  8
0
 62
     3
100
AcDbText
 10
8.753549122704066
 20
-7.031130018484315
 30
0.0
 40
0.09
  1
CADD I.D. NO.
 41
1.012499999999999
  7
SIMPLEX
 11
8.753549122704066
 21
-6.986130018484315
 31
0.0
100
AcDbText
 73
     2
  0
TEXT
  5
368
330
1D5
100
AcDbEntity
  8
0
 62
     3
100
AcDbText
 10
9.137303948194395
 20
-7.707196547610294
 30
0.0
 40
0.09
  1
APPROVALS
 41
1.012499999999999
  7
SIMPLEX
 72
     1
 11
9.52783966248011
 21
-7.662196547610294
 31
0.0
100
AcDbText
 73
     2
  0
TEXT
  5
369
330
1D5
100
AcDbEntity
  8
0
 62
     3
100
AcDbText
 10
10.6269696208955
 20
-7.707196547610294
 30
0.0
 40
0.09
  1
DATE
 41
1.012499999999999
  7
SIMPLEX
 72
     1
 11
10.78752319232407
 21
-7.662196547610294
 31
0.0
100
AcDbText
 73
     2
  0
TEXT
  5
36A
330
1D5
100
AcDbEntity
  8
0
 62
     2
100
AcDbText
 10
12.9117339344146
 20
-7.126162697843984
 30
0.0
 40
0.1482
  1
Jefferson Lab
 41
0.7650000000000001
  7
TXT
 72
     1
 11
13.75776262743495
 21
-7.052062697843984
 31
0.0
100
AcDbText
 73
     2
  0
TEXT
  5
36B
330
1D5
100
AcDbEntity
  8
0
 62
     3
100
AcDbText
 10
12.53836074017823
 20
-7.520341191976704
 30
0.0
 40
0.057
  1
UNITED STATES DEPARTMENT OF ENERGY
 50
0.012631
 41
1.35
  7
SIMPLEX
 72
     1
 11
13.75856157048748
 21
-7.491572194910115
 31
0.0
100
AcDbText
 73
     2
  0
TEXT
  5
36C
330
1D5
100
AcDbEntity
  8
0
 62
     3
100
AcDbText
 10
13.01838215708531
 20
-7.415226119602944
 30
0.0
 40
0.057
  1
NEWPORT NEWS, VIRGINIA
 50
0.012631
 41
1.35
  7
SIMPLEX
 72
     1
 11
13.75856157048748
 21
-7.386562944477634
 31
0.0
100
AcDbText
 73
     2
  0
TEXT
  5
36D
330
1D5
100
AcDbEntity
  8
0
 62
     3
100
AcDbText
 10
11.47315605036821
 20
-7.324807518539044
 30
0.0
 40
0.0855
  1
Thomas Jefferson National Accelerator Facility
 50
0.012631
 41
1.484999999999997
  7
SIMPLEX
 72
     1
 11
13.75856157048748
 21
-7.281553694045214
 31
0.0
100
AcDbText
 73
     2
  0
TEXT
  5
36E
330
1D5
100
AcDbEntity
  8
0
 62
    13
100
AcDbText
 10
5.291466471570672
 20
-5.724292681894317
 30
0.0
 40
0.1562499999999999
  1
XXX
 41
0.675
  7
SIMPLEX
 72
     1
 11
5.427069150142101
 21
-5.646167681894317
 31
0.0
100
AcDbText
 73
     2
  0
TEXT
  5
36F
330
1D5
100
AcDbEntity
  8
0
 62
    13
100
AcDbText
 10
5.805569638261633
 20
-5.724292681894317
 30
0.0
 40
0.1562499999999999
  1
XXX
 41
0.675
  7
SIMPLEX
 72
     1
 11
5.941172316833061
 21
-5.646167681894317
 31
0.0
100
AcDbText
 73
     2
  0
TEXT
  5
370
330
1D5
100
AcDbEntity
  8
0
 62
    13
100
AcDbText
 10
5.83217231683309
 20
-6.592079517601275
 30
0.0
 40
0.07
  1
REQD
 41
0.9
  7
SIMPLEX
 72
     1
 11
5.94617231683309
 21
-6.557079517601275
 31
0.0
100
AcDbText
 73
     2
  0
TEXT
  5
371
330
1D5
100
AcDbEntity
  8
0
 62
    13
100
AcDbText
 10
5.86217231683309
 20
-6.498138293796278
 30
0.0
 40
0.07
  1
QTY
 41
0.9
  7
SIMPLEX
 72
     1
 11
5.94617231683309
 21
-6.463138293796278
 31
0.0
100
AcDbText
 73
     2
  0
TEXT
  5
372
330
1D5
100
AcDbEntity
  8
0
 62
    13
100
AcDbText
 10
5.348069150143142
 20
-6.498138293796278
 30
0.0
 40
0.07
  1
QTY
 41
0.9
  7
SIMPLEX
 72
     1
 11
5.432069150143142
 21
-6.463138293796278
 31
0.0
100
AcDbText
 73
     2
  0
TEXT
  5
373
330
1D5
100
AcDbEntity
  8
0
 62
    13
100
AcDbText
 10
5.318069150143142
 20
-6.592079517601275
 30
0.0
 40
0.07
  1
REQD
 41
0.9
  7
SIMPLEX
 72
     1
 11
5.432069150143142
 21
-6.557079517601275
 31
0.0
100
AcDbText
 73
     2
  0
TEXT
  5
374
330
1D5
100
AcDbEntity
  8
0
 62
    13
100
AcDbText
 10
5.282069150143142
 20
-6.738680877384306
 30
0.0
 40
0.07
  1
-XXXX
 41
0.9
  7
SIMPLEX
 72
     1
 11
5.432069150143142
 21
-6.703680877384305
 31
0.0
100
AcDbText
 73
     2
  0
TEXT
  5
375
330
1D5
100
AcDbEntity
  8
0
 62
    13
100
AcDbText
 10
5.796172316833089
 20
-6.738680877384306
 30
0.0
 40
0.07
  1
-XXXX
 41
0.9
  7
SIMPLEX
 72
     1
 11
5.94617231683309
 21
-6.703680877384305
 31
0.0
100
AcDbText
 73
     2
  0
TEXT
  5
376
330
1D5
100
AcDbEntity
  8
0
 62
    13
100
AcDbText
 10
5.805569638261633
 20
-6.224292681893274
 30
0.0
 40
0.1562499999999999
  1
XXX
 41
0.675
  7
SIMPLEX
 72
     1
 11
5.941172316833061
 21
-6.146167681893274
 31
0.0
100
AcDbText
 73
     2
  0
TEXT
  5
377
330
1D5
100
AcDbEntity
  8
0
 62
    13
100
AcDbText
 10
5.291466471570672
 20
-6.224292681893274
 30
0.0
 40
0.1562499999999999
  1
XXX
 41
0.675
  7
SIMPLEX
 72
     1
 11
5.427069150142101
 21
-6.146167681893274
 31
0.0
100
AcDbText
 73
     2
  0
TEXT
  5
378
330
1D5
100
AcDbEntity
  8
0
 62
    13
100
AcDbText
 10
6.430119233523101
 20
-5.724292681894317
 30
0.0
 40
0.1562499999999999
  1
X
 41
0.675
  7
SIMPLEX
 72
     1
 11
6.465275483523101
 21
-5.646167681894317
 31
0.0
100
AcDbText
 73
     2
  0
TEXT
  5
379
330
1D5
100
AcDbEntity
  8
0
 62
    13
100
AcDbText
 10
6.949222400213098
 20
-5.724292681894317
 30
0.0
 40
0.1562499999999999
  1
2
 41
0.675
  7
SIMPLEX
 72
     1
 11
6.984378650213098
 21
-5.646167681894317
 31
0.0
100
AcDbText
 73
     2
  0
TEXT
  5
37A
330
1D5
100
AcDbEntity
  8
0
 62
    13
100
AcDbText
 10
8.276243663550088
 20
-5.724292681894317
 30
0.0
 40
0.1562499999999999
  1
X
 41
0.9
  7
SIMPLEX
 72
     1
 11
8.323118663550088
 21
-5.646167681894317
 31
0.0
100
AcDbText
 73
     2
  0
TEXT
  5
37B
330
1D5
100
AcDbEntity
  8
0
 62
    13
100
AcDbText
 10
9.47480709354115
 20
-5.618823931894317
 30
0.0
 40
0.1562499999999999
  1
XXXXXXXXXXXXXXXXXXXXXXXXXXXX
 41
0.675
  7
SIMPLEX
100
AcDbText
  0
TEXT
  5
37C
330
1D5
100
AcDbEntity
  8
0
 62
    13
100
AcDbText
 10
9.47480709354115
 20
-5.829761431894317
 30
0.0
 40
0.1562499999999999
  1
XXXXXXXXXXXXXXXXXXXXXXXXXXXX
 41
0.675
  7
SIMPLEX
100
AcDbText
  0
TEXT
  5
37D
330
1D5
100
AcDbEntity
  8
0
 62
    13
100
AcDbText
 10
12.90615623547511
 20
-5.618823931894317
 30
0.0
 40
0.1562499999999999
  1
XXXXXXXXXXXXXXXXXXXXXX
 41
0.675
  7
SIMPLEX
100
AcDbText
  0
TEXT
  5
37E
330
1D5
100
AcDbEntity
  8
0
 62
    13
100
AcDbText
 10
12.90615623547511
 20
-5.829761431894317
 30
0.0
 40
0.1562499999999999
  1
XXXXXXXXXXXXXXXXXXXXXX
 41
0.675
  7
SIMPLEX
100
AcDbText
  0
TEXT
  5
37F
330
1D5
100
AcDbEntity
  8
0
 62
    13
100
AcDbText
 10
9.47480709354115
 20
-6.118823931893274
 30
0.0
 40
0.1562499999999999
  1
XXXXXXXXXXXXXXXXXXXXXXXXXXXX
 41
0.675
  7
SIMPLEX
100
AcDbText
  0
TEXT
  5
380
330
1D5
100
AcDbEntity
  8
0
 62
    13
100
AcDbText
 10
9.47480709354115
 20
-6.329761431893274
 30
0.0
 40
0.1562499999999999
  1
XXXXXXXXXXXXXXXXXXXXXXXXXXXX
 41
0.675
  7
SIMPLEX
100
AcDbText
  0
TEXT
  5
381
330
1D5
100
AcDbEntity
  8
0
 62
    13
100
AcDbText
 10
12.90615623547511
 20
-6.118823931893274
 30
0.0
 40
0.1562499999999999
  1
XXXXXXXXXXXXXXXXXXXXXX
 41
0.675
  7
SIMPLEX
100
AcDbText
  0
TEXT
  5
382
330
1D5
100
AcDbEntity
  8
0
 62
    13
100
AcDbText
 10
12.90615623547511
 20
-6.329761431893274
 30
0.0
 40
0.1562499999999999
  1
XXXXXXXXXXXXXXXXXXXXXX
 41
0.675
  7
SIMPLEX
100
AcDbText
  0
TEXT
  5
383
330
1D5
100
AcDbEntity
  8
0
 62
    13
100
AcDbText
 10
6.310275483523104
 20
-6.738680877384306
 30
0.0
 40
0.07
  1
-XXXX
 41
0.9
  7
SIMPLEX
 72
     1
 11
6.460275483523104
 21
-6.703680877384305
 31
0.0
100
AcDbText
 73
     2
  0
TEXT
  5
384
330
1D5
100
AcDbEntity
  8
0
 62
    13
100
AcDbText
 10
8.276243663550088
 20
-6.224292681893274
 30
0.0
 40
0.1562499999999999
  1
X
 41
0.9
  7
SIMPLEX
 72
     1
 11
8.323118663550088
 21
-6.146167681893274
 31
0.0
100
AcDbText
 73
     2
  0
TEXT
  5
385
330
1D5
100
AcDbEntity
  8
0
 62
    13
100
AcDbText
 10
6.97182284664167
 20
-6.224292681893274
 30
0.0
 40
0.1562499999999999
  1
1
 41
0.675
  7
SIMPLEX
 72
     1
 11
6.984378650213098
 21
-6.146167681893274
 31
0.0
100
AcDbText
 73
     2
  0
TEXT
  5
386
330
1D5
100
AcDbEntity
  8
0
 62
    13
100
AcDbText
 10
6.430119233523101
 20
-6.224292681893274
 30
0.0
 40
0.1562499999999999
  1
X
 41
0.675
  7
SIMPLEX
 72
     1
 11
6.465275483523101
 21
-6.146167681893274
 31
0.0
100
AcDbText
 73
     2
  0
TEXT
  5
387
330
1D5
100
AcDbEntity
  8
0
 62
    13
100
AcDbText
 10
15.75245192960495
 20
-6.245268749775329
 30
0.0
 40
0.1562499999999999
  1
XXXX
 41
0.675
  7
SIMPLEX
 72
     1
 11
15.93827782246209
 21
-6.167143749775329
 31
0.0
100
AcDbText
 73
     2
  0
TEXT
  5
388
330
1D5
100
AcDbEntity
  8
0
 62
    13
100
AcDbText
 10
15.76971508593294
 20
-5.71011090358723
 30
0.0
 40
0.1562499999999999
  1
XXXX
 41
0.675
  7
SIMPLEX
 72
     1
 11
15.95554097879008
 21
-5.63198590358723
 31
0.0
100
AcDbText
 73
     2
  0
TEXT
  5
389
330
1D5
100
AcDbEntity
  8
0
 62
     3
100
AcDbText
 10
7.73249366355009
 20
-6.497858905699279
 30
0.0
 40
0.07
  1
   PART OR
 41
1.124999999999998
  7
SIMPLEX
100
AcDbText
  0
TEXT
  5
38A
330
1D5
100
AcDbEntity
  8
0
 62
     3
100
AcDbText
 10
7.73249366355009
 20
-6.592358905699276
 30
0.0
 40
0.07
  1
IDENTIFYING NO.
 41
1.124999999999998
  7
SIMPLEX
100
AcDbText
  0
TEXT
  5
38B
330
1D5
100
AcDbEntity
  8
0
 62
     3
100
AcDbText
 10
10.70985075589908
 20
-6.497858905699279
 30
0.0
 40
0.07
  1
NOMENCLATURE
 41
1.124999999999998
  7
SIMPLEX
100
AcDbText
  0
TEXT
  5
38C
330
1D5
100
AcDbEntity
  8
0
 62
     3
100
AcDbText
 10
10.70985075589908
 20
-6.592358905699276
 30
0.0
 40
0.07
  1
OR DESCRIPTION
 41
1.124999999999998
  7
SIMPLEX
100
AcDbText
  0
TEXT
  5
38D
330
1D5
100
AcDbEntity
  8
0
 62
     3
100
AcDbText
 10
13.79467653562608
 20
-6.497858905699279
 30
0.0
 40
0.07
  1
  MATERIAL
 41
1.124999999999998
  7
SIMPLEX
100
AcDbText
  0
TEXT
  5
38E
330
1D5
100
AcDbEntity
  8
0
 62
     3
100
AcDbText
 10
13.79467653562608
 20
-6.592358905699276
 30
0.0
 40
0.07
  1
SPECIFICATION
 41
1.124999999999998
  7
SIMPLEX
100
AcDbText
  0
TEXT
  5
38F
330
1D5
100
AcDbEntity
  8
0
 62
     3
100
AcDbText
 10
15.72665618304873
 20
-6.550108905699279
 30
0.0
 40
0.0800000000000001
  1
NOTES
 41
1.125
  7
SIMPLEX
 72
     1
 11
15.93022761162016
 21
-6.510108905699279
 31
0.0
100
AcDbText
 73
     2
  0
TEXT
  5
390
330
1D5
100
AcDbEntity
  8
0
 62
     3
100
AcDbText
 10
6.826878650213099
 20
-6.501358905699278
 30
0.0
 40
0.07
  1
ITEM
 41
1.124999999999998
  7
SIMPLEX
100
AcDbText
  0
TEXT
  5
391
330
1D5
100
AcDbEntity
  8
0
 62
     3
100
AcDbText
 10
6.826878650213099
 20
-6.588858905699275
 30
0.0
 40
0.07
  1
 NO.
 41
1.124999999999998
  7
SIMPLEX
100
AcDbText
  0
TEXT
  5
392
330
1D5
100
AcDbEntity
  8
0
 62
     3
100
AcDbText
 10
6.360275483523102
 20
-6.498138293796278
 30
0.0
 40
0.07
  1
QTY
 41
1.124999999999998
  7
SIMPLEX
 72
     1
 11
6.465275483523101
 21
-6.463138293796278
 31
0.0
100
AcDbText
 73
     2
  0
TEXT
  5
393
330
1D5
100
AcDbEntity
  8
0
 62
     3
100
AcDbText
 10
6.322775483523101
 20
-6.592079517601275
 30
0.0
 40
0.07
  1
REQD
 41
1.124999999999998
  7
SIMPLEX
 72
     1
 11
6.465275483523101
 21
-6.557079517601275
 31
0.0
100
AcDbText
 73
     2
  0
TEXT
  5
394
330
1D5
100
AcDbEntity
  8
0
 62
    13
100
AcDbText
 10
5.315069150143142
 20
-6.832622101189304
 30
0.0
 40
0.07
  1
ASSY
 41
0.9
  7
SIMPLEX
 72
     1
 11
5.432069150143142
 21
-6.797622101189304
 31
0.0
100
AcDbText
 73
     2
  0
TEXT
  5
395
330
1D5
100
AcDbEntity
  8
0
 62
    13
100
AcDbText
 10
5.82917231683309
 20
-6.832622101189304
 30
0.0
 40
0.07
  1
ASSY
 41
0.9
  7
SIMPLEX
 72
     1
 11
5.94617231683309
 21
-6.797622101189304
 31
0.0
100
AcDbText
 73
     2
  0
TEXT
  5
396
330
1D5
100
AcDbEntity
  8
0
 62
    13
100
AcDbText
 10
6.343275483523104
 20
-6.832622101189304
 30
0.0
 40
0.07
  1
ASSY
 41
0.9
  7
SIMPLEX
 72
     1
 11
6.460275483523104
 21
-6.797622101189304
 31
0.0
100
AcDbText
 73
     2
  0
TEXT
  5
397
330
1D5
100
AcDbEntity
  8
0
 62
     3
100
AcDbText
 10
10.82717218447051
 20
-6.789321421297314
 30
0.0
 40
0.09
  1
PARTS LIST
 41
1.125
  7
SIMPLEX
 72
     1
 11
11.26110075589908
 21
-6.744321421297314
 31
0.0
100
AcDbText
 73
     2
  0
TEXT
  5
398
330
1D5
100
AcDbEntity
  8
0
 62
     7
100
AcDbText
 10
-14.92276345980845
 20
-7.715202315628323
 30
0.0
 40
0.1875
  1
A
 41
0.675
  7
COMPLEX
 72
     1
 11
-14.86852238837988
 21
-7.621452315628323
 31
0.0
100
AcDbText
 73
     2
  0
TEXT
  5
399
330
1D5
100
AcDbEntity
  8
0
 62
     7
100
AcDbText
 10
-14.91975006695131
 20
-2.215202315628293
 30
0.0
 40
0.1875
  1
B
 41
0.675
  7
COMPLEX
 72
     1
 11
-14.86852238837988
 21
-2.121452315628293
 31
0.0
100
AcDbText
 73
     2
  0
TEXT
  5
39A
330
1D5
100
AcDbEntity
  8
0
 62
     7
100
AcDbText
 10
-14.91372328123702
 20
3.284797684370659
 30
0.0
 40
0.1875
  1
C
 41
0.675
  7
COMPLEX
 72
     1
 11
-14.86852238837988
 21
3.378547684370659
 31
0.0
100
AcDbText
 73
     2
  0
TEXT
  5
39B
330
1D5
100
AcDbEntity
  8
0
 62
     7
100
AcDbText
 10
-14.91975006695131
 20
8.784797684370689
 30
0.0
 40
0.1875
  1
D
 41
0.675
  7
COMPLEX
 72
     1
 11
-14.86852238837988
 21
8.878547684370689
 31
0.0
100
AcDbText
 73
     2
  0
TEXT
  5
39C
330
1D5
100
AcDbEntity
  8
0
 62
     7
100
AcDbText
 10
-13.74695988837987
 20
-9.658952315629337
 30
0.0
 40
0.1875
  1
8
 41
0.675
  7
COMPLEX
 72
     1
 11
-13.70477238837987
 21
-9.565202315629337
 31
0.0
100
AcDbText
 73
     2
  0
TEXT
  5
39D
330
1D5
100
AcDbEntity
  8
0
 62
     7
100
AcDbText
 10
-10.22070988837989
 20
-9.658952315629337
 30
0.0
 40
0.1875
  1
7
 41
0.675
  7
COMPLEX
 72
     1
 11
-10.17852238837989
 21
-9.565202315629337
 31
0.0
100
AcDbText
 73
     2
  0
TEXT
  5
39E
330
1D5
100
AcDbEntity
  8
0
 62
     7
100
AcDbText
 10
-1.720709888379925
 20
-9.658952315629337
 30
0.0
 40
0.1875
  1
5
 41
0.675
  7
COMPLEX
 72
     1
 11
-1.678522388379925
 21
-9.565202315629337
 31
0.0
100
AcDbText
 73
     2
  0
TEXT
  5
39F
330
1D5
100
AcDbEntity
  8
0
 62
     7
100
AcDbText
 10
15.27249604673083
 20
-9.658952315629337
 30
0.0
 40
0.1875
  1
1
 41
0.675
  7
COMPLEX
 72
     1
 11
15.29961658244511
 21
-9.565202315629337
 31
0.0
100
AcDbText
 73
     2
  0
TEXT
  5
3A0
330
1D5
100
AcDbEntity
  8
0
 62
     7
100
AcDbText
 10
11.00742908244512
 20
-9.658952315629337
 30
0.0
 40
0.1875
  1
2
 41
0.675
  7
COMPLEX
 72
     1
 11
11.04961658244512
 21
-9.565202315629337
 31
0.0
100
AcDbText
 73
     2
  0
TEXT
  5
3A1
330
1D5
100
AcDbEntity
  8
0
 62
     7
100
AcDbText
 10
6.757429082445089
 20
-9.658952315629337
 30
0.0
 40
0.1875
  1
3
 41
0.675
  7
COMPLEX
 72
     1
 11
6.799616582445088
 21
-9.565202315629337
 31
0.0
100
AcDbText
 73
     2
  0
TEXT
  5
3A2
330
1D5
100
AcDbEntity
  8
0
 62
     7
100
AcDbText
 10
2.48628060322382
 20
-9.658952315629337
 30
0.0
 40
0.1875
  1
4
 41
0.675
  7
COMPLEX
 72
     1
 11
2.534494888938106
 21
-9.565202315629337
 31
0.0
100
AcDbText
 73
     2
  0
TEXT
  5
3A3
330
1D5
100
AcDbEntity
  8
0
 62
     7
100
AcDbText
 10
-5.970709888379886
 20
-9.658952315629337
 30
0.0
 40
0.1875
  1
6
 41
0.675
  7
COMPLEX
 72
     1
 11
-5.928522388379886
 21
-9.565202315629337
 31
0.0
100
AcDbText
 73
     2
  0
TEXT
  5
3A4
330
1D5
100
AcDbEntity
  8
0
 62
     7
100
AcDbText
 10
16.46024993304868
 20
8.784797684370689
 30
0.0
 40
0.1875
  1
D
 41
0.675
  7
COMPLEX
 72
     1
 11
16.51147761162011
 21
8.878547684370689
 31
0.0
100
AcDbText
 73
     2
  0
TEXT
  5
3A5
330
1D5
100
AcDbEntity
  8
0
 62
     7
100
AcDbText
 10
16.46627671876297
 20
3.284797684370659
 30
0.0
 40
0.1875
  1
C
 41
0.675
  7
COMPLEX
 72
     1
 11
16.51147761162011
 21
3.378547684370659
 31
0.0
100
AcDbText
 73
     2
  0
TEXT
  5
3A6
330
1D5
100
AcDbEntity
  8
0
 62
     7
100
AcDbText
 10
16.46024993304868
 20
-2.215202315628293
 30
0.0
 40
0.1875
  1
B
 41
0.675
  7
COMPLEX
 72
     1
 11
16.51147761162011
 21
-2.121452315628293
 31
0.0
100
AcDbText
 73
     2
  0
TEXT
  5
3A7
330
1D5
100
AcDbEntity
  8
0
 62
     7
100
AcDbText
 10
16.45723654019154
 20
-7.715202315628323
 30
0.0
 40
0.1875
  1
A
 41
0.675
  7
COMPLEX
 72
     1
 11
16.51147761162011
 21
-7.621452315628323
 31
0.0
100
AcDbText
 73
     2
  0
TEXT
  5
3A8
330
1D5
100
AcDbEntity
  8
0
 62
     7
100
AcDbText
 10
-13.74695988837987
 20
10.72854768437162
 30
0.0
 40
0.1875
  1
8
 41
0.675
  7
COMPLEX
 72
     1
 11
-13.70477238837987
 21
10.82229768437163
 31
0.0
100
AcDbText
 73
     2
  0
TEXT
  5
3A9
330
1D5
100
AcDbEntity
  8
0
 62
     7
100
AcDbText
 10
-10.22070988837989
 20
10.72854768437162
 30
0.0
 40
0.1875
  1
7
 41
0.675
  7
COMPLEX
 72
     1
 11
-10.17852238837989
 21
10.82229768437163
 31
0.0
100
AcDbText
 73
     2
  0
TEXT
  5
3AA
330
1D5
100
AcDbEntity
  8
0
 62
     7
100
AcDbText
 10
-5.970709888379886
 20
10.72854768437162
 30
0.0
 40
0.1875
  1
6
 41
0.675
  7
COMPLEX
 72
     1
 11
-5.928522388379886
 21
10.82229768437163
 31
0.0
100
AcDbText
 73
     2
  0
TEXT
  5
3AB
330
1D5
100
AcDbEntity
  8
0
 62
     7
100
AcDbText
 10
-1.720709888379925
 20
10.72854768437162
 30
0.0
 40
0.1875
  1
5
 41
0.675
  7
COMPLEX
 72
     1
 11
-1.678522388379925
 21
10.82229768437163
 31
0.0
100
AcDbText
 73
     2
  0
TEXT
  5
3AC
330
1D5
100
AcDbEntity
  8
0
 62
     7
100
AcDbText
 10
6.757429082445089
 20
10.72854768437162
 30
0.0
 40
0.1875
  1
3
 41
0.675
  7
COMPLEX
 72
     1
 11
6.799616582445088
 21
10.82229768437163
 31
0.0
100
AcDbText
 73
     2
  0
TEXT
  5
3AD
330
1D5
100
AcDbEntity
  8
0
 62
     7
100
AcDbText
 10
2.48628060322382
 20
10.72854768437162
 30
0.0
 40
0.1875
  1
4
 41
0.675
  7
COMPLEX
 72
     1
 11
2.534494888938106
 21
10.82229768437163
 31
0.0
100
AcDbText
 73
     2
  0
TEXT
  5
3AE
330
1D5
100
AcDbEntity
  8
0
 62
     7
100
AcDbText
 10
15.27249604673083
 20
10.72854768437162
 30
0.0
 40
0.1875
  1
1
 41
0.675
  7
COMPLEX
 72
     1
 11
15.29961658244511
 21
10.82229768437163
 31
0.0
100
AcDbText
 73
     2
  0
TEXT
  5
3AF
330
1D5
100
AcDbEntity
  8
0
 62
     3
100
AcDbText
 10
12.99934366074787
 20
10.77651402581407
 30
0.0
 40
0.0800000000000001
  1
REV.
 41
1.012499999999999
  7
SIMPLEX
 11
12.99934366074787
 21
10.81651402581407
 31
0.0
100
AcDbText
 73
     2
  0
TEXT
  5
3B0
330
1D5
100
AcDbEntity
  8
0
 62
     3
100
AcDbText
 10
12.36528662664509
 20
10.77651402581407
 30
0.0
 40
0.0800000000000001
  1
SHT.
 41
1.012499999999999
  7
SIMPLEX
 11
12.36528662664509
 21
10.81651402581407
 31
0.0
100
AcDbText
 73
     2
  0
TEXT
  5
3B1
330
1D5
100
AcDbEntity
  8
0
 62
     3
100
AcDbText
 10
9.145286626645109
 20
10.77651402581407
 30
0.0
 40
0.0800000000000001
  1
DWG. NO.
 41
1.012499999999999
  7
SIMPLEX
 11
9.145286626645109
 21
10.81651402581407
 31
0.0
100
AcDbText
 73
     2
  0
TEXT
  5
3B2
330
1D5
100
AcDbEntity
  8
0
 62
     3
100
AcDbText
 10
12.75898464722039
 20
10.68705508957376
 30
0.0
 40
0.14
  1
1
 41
1.012500000000001
  7
SIMPLEX
 72
     1
 11
12.77585964722039
 21
10.75705508957376
 31
0.0
100
AcDbText
 73
     2
  0
TEXT
  5
3B3
330
1D5
100
AcDbEntity
  8
0
 62
     3
100
AcDbText
 10
13.35341668132221
 20
10.68705508957376
 30
0.0
 40
0.14
  1
A
 41
1.012500000000001
  7
SIMPLEX
 72
     1
 11
13.40741668132221
 21
10.75705508957376
 31
0.0
100
AcDbText
 73
     2
  0
TEXT
  5
3B4
330
1D5
100
AcDbEntity
  8
0
 62
     3
100
AcDbText
 10
9.907097244893927
 20
10.69435497580361
 30
0.0
 40
0.14
  1
67246-D-56004
 41
1.125
  7
SIMPLEX
 72
     1
 11
10.91209724489392
 21
10.76435497580361
 31
0.0
100
AcDbText
 73
     2
  0
ENDBLK
  5
3B6
330
1D5
100
AcDbEntity
  8
0
100
AcDbBlockEnd
  0
BLOCK
  5
1F3
330
1D7
100
AcDbEntity
  8
0
100
AcDbBlockBegin
  2
*X6
 70
     1
 10
0.0
 20
0.0
 30
0.0
  3
*X6
  1

  0
LINE
  5
1D8
330
1D7
100
AcDbEntity
  8
0
 62
     7
100
AcDbLine
 10
-15.42268636530661
 20
-2.771795226063877
 30
0.0
 11
-15.40995032144128
 21
-2.771795226063879
 31
0.0
  0
LINE
  5
1D9
330
1D7
100
AcDbEntity
  8
0
 62
     7
100
AcDbLine
 10
-15.42268636530661
 20
-2.776795226063877
 30
0.0
 11
-15.39328365477464
 21
-2.776795226063879
 31
0.0
  0
LINE
  5
1DA
330
1D7
100
AcDbEntity
  8
0
 62
     7
100
AcDbLine
 10
-15.42268636530661
 20
-2.781795226063878
 30
0.0
 11
-15.37661698810799
 21
-2.781795226063878
 31
0.0
  0
LINE
  5
1DB
330
1D7
100
AcDbEntity
  8
0
 62
     7
100
AcDbLine
 10
-15.42268636530661
 20
-2.786795226063877
 30
0.0
 11
-15.35995032144134
 21
-2.786795226063877
 31
0.0
  0
LINE
  5
1DC
330
1D7
100
AcDbEntity
  8
0
 62
     7
100
AcDbLine
 10
-15.42268636530661
 20
-2.791795226063877
 30
0.0
 11
-15.34328365477469
 21
-2.791795226063877
 31
0.0
  0
LINE
  5
1DD
330
1D7
100
AcDbEntity
  8
0
 62
     7
100
AcDbLine
 10
-15.42268636530661
 20
-2.796795226063877
 30
0.0
 11
-15.32661698810805
 21
-2.796795226063877
 31
0.0
  0
LINE
  5
1DE
330
1D7
100
AcDbEntity
  8
0
 62
     7
100
AcDbLine
 10
-15.42268636530661
 20
-2.801795226063878
 30
0.0
 11
-15.3099503214414
 21
-2.801795226063878
 31
0.0
  0
LINE
  5
1DF
330
1D7
100
AcDbEntity
  8
0
 62
     7
100
AcDbLine
 10
-15.42268636530661
 20
-2.806795226063877
 30
0.0
 11
-15.29328365477474
 21
-2.806795226063877
 31
0.0
  0
LINE
  5
1E0
330
1D7
100
AcDbEntity
  8
0
 62
     7
100
AcDbLine
 10
-15.50719423932242
 20
-2.811795226063879
 30
0.0
 11
-15.2766169881081
 21
-2.811795226063877
 31
0.0
  0
LINE
  5
1E1
330
1D7
100
AcDbEntity
  8
0
 62
     7
100
AcDbLine
 10
-15.50719423932242
 20
-2.816795226063879
 30
0.0
 11
-15.25995032144145
 21
-2.816795226063877
 31
0.0
  0
LINE
  5
1E2
330
1D7
100
AcDbEntity
  8
0
 62
     7
100
AcDbLine
 10
-15.50719423932242
 20
-2.821795226063878
 30
0.0
 11
-15.24328365477481
 21
-2.821795226063878
 31
0.0
  0
LINE
  5
1E3
330
1D7
100
AcDbEntity
  8
0
 62
     7
100
AcDbLine
 10
-15.50719423932242
 20
-2.826795226063877
 30
0.0
 11
-15.22661698810816
 21
-2.826795226063877
 31
0.0
  0
LINE
  5
1E4
330
1D7
100
AcDbEntity
  8
0
 62
     7
100
AcDbLine
 10
-15.50719423932242
 20
-2.831795226063877
 30
0.0
 11
-15.2099503214415
 21
-2.831795226063876
 31
0.0
  0
LINE
  5
1E5
330
1D7
100
AcDbEntity
  8
0
 62
     7
100
AcDbLine
 10
-15.50719423932242
 20
-2.836795226063877
 30
0.0
 11
-15.20208907583834
 21
-2.836795226063879
 31
0.0
  0
LINE
  5
1E6
330
1D7
100
AcDbEntity
  8
0
 62
     7
100
AcDbLine
 10
-15.50719423932242
 20
-2.841795226063878
 30
0.0
 11
-15.21875574250526
 21
-2.841795226063879
 31
0.0
  0
LINE
  5
1E7
330
1D7
100
AcDbEntity
  8
0
 62
     7
100
AcDbLine
 10
-15.50719423932242
 20
-2.846795226063878
 30
0.0
 11
-15.23542240917219
 21
-2.846795226063878
 31
0.0
  0
LINE
  5
1E8
330
1D7
100
AcDbEntity
  8
0
 62
     7
100
AcDbLine
 10
-15.50719423932242
 20
-2.851795226063877
 30
0.0
 11
-15.25208907583913
 21
-2.851795226063879
 31
0.0
  0
LINE
  5
1E9
330
1D7
100
AcDbEntity
  8
0
 62
     7
100
AcDbLine
 10
-15.50719423932242
 20
-2.856795226063877
 30
0.0
 11
-15.26875574250606
 21
-2.856795226063879
 31
0.0
  0
LINE
  5
1EA
330
1D7
100
AcDbEntity
  8
0
 62
     7
100
AcDbLine
 10
-15.50719423932242
 20
-2.861795226063878
 30
0.0
 11
-15.28542240917299
 21
-2.861795226063879
 31
0.0
  0
LINE
  5
1EB
330
1D7
100
AcDbEntity
  8
0
 62
     7
100
AcDbLine
 10
-15.42268636530661
 20
-2.866795226063878
 30
0.0
 11
-15.30208907583993
 21
-2.866795226063878
 31
0.0
  0
LINE
  5
1EC
330
1D7
100
AcDbEntity
  8
0
 62
     7
100
AcDbLine
 10
-15.42268636530661
 20
-2.871795226063877
 30
0.0
 11
-15.31875574250685
 21
-2.871795226063877
 31
0.0
  0
LINE
  5
1ED
330
1D7
100
AcDbEntity
  8
0
 62
     7
100
AcDbLine
 10
-15.42268636530661
 20
-2.876795226063877
 30
0.0
 11
-15.33542240917379
 21
-2.876795226063877
 31
0.0
  0
LINE
  5
1EE
330
1D7
100
AcDbEntity
  8
0
 62
     7
100
AcDbLine
 10
-15.42268636530661
 20
-2.881795226063877
 30
0.0
 11
-15.35208907584072
 21
-2.881795226063877
 31
0.0
  0
LINE
  5
1EF
330
1D7
100
AcDbEntity
  8
0
 62
     7
100
AcDbLine
 10
-15.42268636530661
 20
-2.886795226063878
 30
0.0
 11
-15.36875574250765
 21
-2.886795226063878
 31
0.0
  0
LINE
  5
1F0
330
1D7
100
AcDbEntity
  8
0
 62
     7
100
AcDbLine
 10
-15.42268636530661
 20
-2.891795226063877
 30
0.0
 11
-15.38542240917458
 21
-2.891795226063877
 31
0.0
  0
LINE
  5
1F1
330
1D7
100
AcDbEntity
  8
0
 62
     7
100
AcDbLine
 10
-15.42268636530661
 20
-2.896795226063877
 30
0.0
 11
-15.40208907584151
 21
-2.896795226063877
 31
0.0
  0
LINE
  5
1F2
330
1D7
100
AcDbEntity
  8
0
 62
     7
100
AcDbLine
 10
-15.42268636530661
 20
-2.901795226063877
 30
0.0
 11
-15.41875574250844
 21
-2.901795226063877
 31
0.0
  0
ENDBLK
  5
1F4
330
1D7
100
AcDbEntity
  8
0
100
AcDbBlockEnd
  0
BLOCK
  5
212
330
1F6
100
AcDbEntity
  8
0
100
AcDbBlockBegin
  2
*X7
 70
     1
 10
0.0
 20
0.0
 30
0.0
  3
*X7
  1

  0
LINE
  5
1F7
330
1F6
100
AcDbEntity
  8
0
 62
     7
100
AcDbLine
 10
16.01957759082841
 20
-2.771795226063879
 30
0.0
 11
16.03231363469376
 21
-2.771795226063877
 31
0.0
  0
LINE
  5
1F8
330
1F6
100
AcDbEntity
  8
0
 62
     7
100
AcDbLine
 10
16.00291092416177
 20
-2.776795226063879
 30
0.0
 11
16.03231363469376
 21
-2.776795226063877
 31
0.0
  0
LINE
  5
1F9
330
1F6
100
AcDbEntity
  8
0
 62
     7
100
AcDbLine
 10
15.98624425749512
 20
-2.781795226063878
 30
0.0
 11
16.03231363469376
 21
-2.781795226063878
 31
0.0
  0
LINE
  5
1FA
330
1F6
100
AcDbEntity
  8
0
 62
     7
100
AcDbLine
 10
15.96957759082847
 20
-2.786795226063877
 30
0.0
 11
16.03231363469376
 21
-2.786795226063877
 31
0.0
  0
LINE
  5
1FB
330
1F6
100
AcDbEntity
  8
0
 62
     7
100
AcDbLine
 10
15.95291092416183
 20
-2.791795226063877
 30
0.0
 11
16.03231363469376
 21
-2.791795226063877
 31
0.0
  0
LINE
  5
1FC
330
1F6
100
AcDbEntity
  8
0
 62
     7
100
AcDbLine
 10
15.93624425749518
 20
-2.796795226063877
 30
0.0
 11
16.03231363469376
 21
-2.796795226063877
 31
0.0
  0
LINE
  5
1FD
330
1F6
100
AcDbEntity
  8
0
 62
     7
100
AcDbLine
 10
15.91957759082852
 20
-2.801795226063878
 30
0.0
 11
16.03231363469376
 21
-2.801795226063878
 31
0.0
  0
LINE
  5
1FE
330
1F6
100
AcDbEntity
  8
0
 62
     7
100
AcDbLine
 10
15.90291092416189
 20
-2.806795226063877
 30
0.0
 11
16.03231363469376
 21
-2.806795226063877
 31
0.0
  0
LINE
  5
1FF
330
1F6
100
AcDbEntity
  8
0
 62
     7
100
AcDbLine
 10
15.88624425749524
 20
-2.811795226063877
 30
0.0
 11
16.1168215087091
 21
-2.811795226063879
 31
0.0
  0
LINE
  5
200
330
1F6
100
AcDbEntity
  8
0
 62
     7
100
AcDbLine
 10
15.8695775908286
 20
-2.816795226063877
 30
0.0
 11
16.1168215087091
 21
-2.816795226063879
 31
0.0
  0
LINE
  5
201
330
1F6
100
AcDbEntity
  8
0
 62
     7
100
AcDbLine
 10
15.85291092416194
 20
-2.821795226063878
 30
0.0
 11
16.1168215087091
 21
-2.821795226063878
 31
0.0
  0
LINE
  5
202
330
1F6
100
AcDbEntity
  8
0
 62
     7
100
AcDbLine
 10
15.8362442574953
 20
-2.826795226063877
 30
0.0
 11
16.1168215087091
 21
-2.826795226063877
 31
0.0
  0
LINE
  5
203
330
1F6
100
AcDbEntity
  8
0
 62
     7
100
AcDbLine
 10
15.81957759082865
 20
-2.831795226063876
 30
0.0
 11
16.1168215087091
 21
-2.831795226063877
 31
0.0
  0
LINE
  5
204
330
1F6
100
AcDbEntity
  8
0
 62
     7
100
AcDbLine
 10
15.81171634522505
 20
-2.836795226063879
 30
0.0
 11
16.1168215087091
 21
-2.836795226063877
 31
0.0
  0
LINE
  5
205
330
1F6
100
AcDbEntity
  8
0
 62
     7
100
AcDbLine
 10
15.82838301189199
 20
-2.841795226063879
 30
0.0
 11
16.1168215087091
 21
-2.841795226063878
 31
0.0
  0
LINE
  5
206
330
1F6
100
AcDbEntity
  8
0
 62
     7
100
AcDbLine
 10
15.84504967855892
 20
-2.846795226063878
 30
0.0
 11
16.1168215087091
 21
-2.846795226063878
 31
0.0
  0
LINE
  5
207
330
1F6
100
AcDbEntity
  8
0
 62
     7
100
AcDbLine
 10
15.86171634522584
 20
-2.851795226063879
 30
0.0
 11
16.1168215087091
 21
-2.851795226063877
 31
0.0
  0
LINE
  5
208
330
1F6
100
AcDbEntity
  8
0
 62
     7
100
AcDbLine
 10
15.87838301189276
 20
-2.856795226063879
 30
0.0
 11
16.1168215087091
 21
-2.856795226063877
 31
0.0
  0
LINE
  5
209
330
1F6
100
AcDbEntity
  8
0
 62
     7
100
AcDbLine
 10
15.8950496785597
 20
-2.861795226063879
 30
0.0
 11
16.1168215087091
 21
-2.861795226063878
 31
0.0
  0
LINE
  5
20A
330
1F6
100
AcDbEntity
  8
0
 62
     7
100
AcDbLine
 10
15.91171634522663
 20
-2.866795226063878
 30
0.0
 11
16.03231363469331
 21
-2.866795226063878
 31
0.0
  0
LINE
  5
20B
330
1F6
100
AcDbEntity
  8
0
 62
     7
100
AcDbLine
 10
15.92838301189356
 20
-2.871795226063877
 30
0.0
 11
16.03231363469331
 21
-2.871795226063877
 31
0.0
  0
LINE
  5
20C
330
1F6
100
AcDbEntity
  8
0
 62
     7
100
AcDbLine
 10
15.94504967856049
 20
-2.876795226063877
 30
0.0
 11
16.03231363469331
 21
-2.876795226063877
 31
0.0
  0
LINE
  5
20D
330
1F6
100
AcDbEntity
  8
0
 62
     7
100
AcDbLine
 10
15.96171634522742
 20
-2.881795226063877
 30
0.0
 11
16.03231363469331
 21
-2.881795226063877
 31
0.0
  0
LINE
  5
20E
330
1F6
100
AcDbEntity
  8
0
 62
     7
100
AcDbLine
 10
15.97838301189434
 20
-2.886795226063878
 30
0.0
 11
16.03231363469331
 21
-2.886795226063878
 31
0.0
  0
LINE
  5
20F
330
1F6
100
AcDbEntity
  8
0
 62
     7
100
AcDbLine
 10
15.99504967856127
 20
-2.891795226063877
 30
0.0
 11
16.03231363469331
 21
-2.891795226063877
 31
0.0
  0
LINE
  5
210
330
1F6
100
AcDbEntity
  8
0
 62
     7
100
AcDbLine
 10
16.0117163452282
 20
-2.896795226063877
 30
0.0
 11
16.03231363469331
 21
-2.896795226063877
 31
0.0
  0
LINE
  5
211
330
1F6
100
AcDbEntity
  8
0
 62
     7
100
AcDbLine
 10
16.02838301189513
 20
-2.901795226063877
 30
0.0
 11
16.03231363469331
 21
-2.901795226063877
 31
0.0
  0
ENDBLK
  5
213
330
1F6
100
AcDbEntity
  8
0
100
AcDbBlockEnd
  0
BLOCK
  5
22C
330
215
100
AcDbEntity
  8
0
100
AcDbBlockBegin
  2
*X8
 70
     1
 10
0.0
 20
0.0
 30
0.0
  3
*X8
  1

  0
LINE
  5
216
330
215
100
AcDbEntity
  8
0
 62
     7
100
AcDbLine
 10
-0.1217851324981378
 20
-12.99165392257055
 30
0.0
 11
-0.1217851324981377
 21
-12.98279922864232
 31
0.0
  0
LINE
  5
217
330
215
100
AcDbEntity
  8
0
 62
     7
100
AcDbLine
 10
-0.1167851324981378
 20
-12.99165392257055
 30
0.0
 11
-0.1167851324981377
 21
-12.97034013099981
 31
0.0
  0
LINE
  5
218
330
215
100
AcDbEntity
  8
0
 62
     7
100
AcDbLine
 10
-0.1117851324981378
 20
-12.99165392257055
 30
0.0
 11
-0.1117851324981377
 21
-12.95788103335728
 31
0.0
  0
LINE
  5
219
330
215
100
AcDbEntity
  8
0
 62
     7
100
AcDbLine
 10
-0.1067851324981378
 20
-12.99165392257055
 30
0.0
 11
-0.1067851324981377
 21
-12.94542193571476
 31
0.0
  0
LINE
  5
21A
330
215
100
AcDbEntity
  8
0
 62
     7
100
AcDbLine
 10
-0.1017851324981378
 20
-13.06015570925592
 30
0.0
 11
-0.1017851324981377
 21
-12.93296283807223
 31
0.0
  0
LINE
  5
21B
330
215
100
AcDbEntity
  8
0
 62
     7
100
AcDbLine
 10
-0.0967851324981378
 20
-13.06015570925592
 30
0.0
 11
-0.0967851324981378
 21
-12.92050374042971
 31
0.0
  0
LINE
  5
21C
330
215
100
AcDbEntity
  8
0
 62
     7
100
AcDbLine
 10
-0.0917851324981378
 20
-13.06015570925592
 30
0.0
 11
-0.0917851324981378
 21
-12.90804464278718
 31
0.0
  0
LINE
  5
21D
330
215
100
AcDbEntity
  8
0
 62
     7
100
AcDbLine
 10
-0.0867851324981378
 20
-13.06015570925592
 30
0.0
 11
-0.0867851324981378
 21
-12.89558554514466
 31
0.0
  0
LINE
  5
21E
330
215
100
AcDbEntity
  8
0
 62
     7
100
AcDbLine
 10
-0.0817851324981378
 20
-13.06015570925592
 30
0.0
 11
-0.0817851324981378
 21
-12.88312644750213
 31
0.0
  0
LINE
  5
21F
330
215
100
AcDbEntity
  8
0
 62
     7
100
AcDbLine
 10
-0.0767851324981378
 20
-13.06015570925592
 30
0.0
 11
-0.0767851324981378
 21
-12.87066734985961
 31
0.0
  0
LINE
  5
220
330
215
100
AcDbEntity
  8
0
 62
     7
100
AcDbLine
 10
-0.0717851324981378
 20
-13.06015570925592
 30
0.0
 11
-0.0717851324981378
 21
-12.85820825221708
 31
0.0
  0
LINE
  5
221
330
215
100
AcDbEntity
  8
0
 62
     7
100
AcDbLine
 10
-0.0667851324981378
 20
-13.06015570925592
 30
0.0
 11
-0.0667851324981378
 21
-12.86269967123505
 31
0.0
  0
LINE
  5
222
330
215
100
AcDbEntity
  8
0
 62
     7
100
AcDbLine
 10
-0.0617851324981377
 20
-13.06015570925592
 30
0.0
 11
-0.0617851324981378
 21
-12.87515876887758
 31
0.0
  0
LINE
  5
223
330
215
100
AcDbEntity
  8
0
 62
     7
100
AcDbLine
 10
-0.0567851324981377
 20
-13.06015570925592
 30
0.0
 11
-0.0567851324981378
 21
-12.8876178665201
 31
0.0
  0
LINE
  5
224
330
215
100
AcDbEntity
  8
0
 62
     7
100
AcDbLine
 10
-0.0517851324981377
 20
-13.06015570925592
 30
0.0
 11
-0.0517851324981378
 21
-12.90007696416263
 31
0.0
  0
LINE
  5
225
330
215
100
AcDbEntity
  8
0
 62
     7
100
AcDbLine
 10
-0.0467851324981377
 20
-13.06015570925592
 30
0.0
 11
-0.0467851324981378
 21
-12.91253606180515
 31
0.0
  0
LINE
  5
226
330
215
100
AcDbEntity
  8
0
 62
     7
100
AcDbLine
 10
-0.0417851324981377
 20
-13.06015570925592
 30
0.0
 11
-0.0417851324981378
 21
-12.92499515944768
 31
0.0
  0
LINE
  5
227
330
215
100
AcDbEntity
  8
0
 62
     7
100
AcDbLine
 10
-0.0367851324981378
 20
-12.99165392257055
 30
0.0
 11
-0.0367851324981378
 21
-12.93745425709019
 31
0.0
  0
LINE
  5
228
330
215
100
AcDbEntity
  8
0
 62
     7
100
AcDbLine
 10
-0.0317851324981378
 20
-12.99165392257055
 30
0.0
 11
-0.0317851324981378
 21
-12.94991335473273
 31
0.0
  0
LINE
  5
229
330
215
100
AcDbEntity
  8
0
 62
     7
100
AcDbLine
 10
-0.0267851324981378
 20
-12.99165392257055
 30
0.0
 11
-0.0267851324981378
 21
-12.96237245237525
 31
0.0
  0
LINE
  5
22A
330
215
100
AcDbEntity
  8
0
 62
     7
100
AcDbLine
 10
-0.0217851324981378
 20
-12.99165392257055
 30
0.0
 11
-0.0217851324981378
 21
-12.97483155001778
 31
0.0
  0
LINE
  5
22B
330
215
100
AcDbEntity
  8
0
 62
     7
100
AcDbLine
 10
-0.0167851324981378
 20
-12.99165392257055
 30
0.0
 11
-0.0167851324981378
 21
-12.9872906476603
 31
0.0
  0
ENDBLK
  5
22D
330
215
100
AcDbEntity
  8
0
100
AcDbBlockEnd
  0
ENDSEC
  0
SECTION
  2
ENTITIES
  0
LINE
  5
56
330
1F
100
AcDbEntity
  8
1
  6
CONTINUOUS
 62
     7
100
AcDbLine
 10
-13.31887735043538
 20
0.9252264609087118
 30
0.0
 11
-13.74440507976378
 21
0.9252264609087118
 31
0.0
  0
LINE
  5
57
330
1F
100
AcDbEntity
  8
1
  6
CONTINUOUS
 62
     7
100
AcDbLine
 10
-12.33768931547064
 20
-0.7299316598600032
 30
0.0
 11
-12.84760298196716
 21
-1.239845326356519
 31
0.0
  0
TEXT
  5
59
330
1F
100
AcDbEntity
  8
1
  6
CONTINUOUS
 62
     7
100
AcDbText
 10
-14.62301310395547
 20
-0.4539295236964258
 30
0.0
 40
0.156
  1
45.0000°
  7
TXT
 72
     1
 11
-14.05598700104006
 21
-0.3759295236964258
 31
0.0
100
AcDbText
 73
     2
  0
ARC
  5
5A
330
1F
100
AcDbEntity
  8
1
  6
CONTINUOUS
 62
     7
100
AcDbCircle
 10
-10.68253119470193
 20
0.9252264609087117
 30
0.0
 40
2.983173885061848
100
AcDbArc
 50
180.0
 51
224.9999999999999
  0
INSERT
  5
60
330
1F
100
AcDbEntity
  8
1
  6
CONTINUOUS
 62
     7
100
AcDbBlockReference
  2
LONGARROW
 10
-13.66570507976378
 20
0.925226460908712
 30
0.0
 41
0.156
 42
0.156
 50
272.9961852538326
  0
INSERT
  5
61
330
1F
100
AcDbEntity
  8
1
  6
CONTINUOUS
 62
     7
100
AcDbBlockReference
  2
LONGARROW
 10
-12.79195367828778
 20
-1.184196022677138
 30
0.0
 41
0.156
 42
0.156
 50
132.0038147461672
  0
LINE
  5
62
330
1F
100
AcDbEntity
  8
1
  6
CONTINUOUS
 62
     7
100
AcDbLine
 10
-12.34728088504916
 20
2.614693715515558
 30
0.0
 11
-12.85441978695842
 21
3.121832617424815
 31
0.0
  0
LINE
  5
63
330
1F
100
AcDbEntity
  8
1
  6
CONTINUOUS
 62
     7
100
AcDbLine
 10
-13.3317082710217
 20
0.9251968503937009
 30
0.0
 11
-13.76429611325654
 21
0.9251968503937009
 31
0.0
  0
TEXT
  5
64
330
1F
100
AcDbEntity
  8
1
  6
CONTINUOUS
 62
     7
100
AcDbText
 10
-14.78931741301964
 20
1.976671916472267
 30
0.0
 40
0.156
  1
45.0000°
  7
TXT
 72
     1
 11
-14.22229131010424
 21
2.054671916472267
 31
0.0
100
AcDbText
 73
     2
  0
ARC
  5
65
330
1F
100
AcDbEntity
  8
1
  6
CONTINUOUS
 62
     7
100
AcDbCircle
 10
-10.65778401992731
 20
0.9251968503937009
 30
0.0
 40
3.027812093329228
100
AcDbArc
 50
135.0
 51
180.0
  0
INSERT
  5
66
330
1F
100
AcDbEntity
  8
1
  6
CONTINUOUS
 62
     7
100
AcDbBlockReference
  2
LONGARROW
 10
-12.79877048327904
 20
3.066183313745434
 30
0.0
 41
0.156
 42
0.156
 50
227.952013311438
  0
INSERT
  5
67
330
1F
100
AcDbEntity
  8
1
  6
CONTINUOUS
 62
     7
100
AcDbBlockReference
  2
LONGARROW
 10
-13.68559611325653
 20
0.9251968503937012
 30
0.0
 41
0.156
 42
0.156
 50
87.04798668856193
  0
INSERT
  5
AC
330
1F
100
AcDbEntity
  8
1
100
AcDbBlockReference
  2
*X2
 10
0.0
 20
0.0
 30
0.0
  0
LWPOLYLINE
  5
AD
102
{ACAD_REACTORS
330
AE
102
}
330
1F
100
AcDbEntity
  8
1
  6
CONTINUOUS
 62
     7
100
AcDbPolyline
 90
        4
 70
     1
 43
0.0
 10
-0.9000984251968516
 20
1.831196850393699
 10
7.974901574803153
 20
1.831171620276689
 10
7.974901574803153
 20
1.764696850393699
 10
-0.9000984251968516
 20
1.7646968503937
  0
HATCH
  5
AE
330
1F
100
AcDbEntity
  8
1
  6
CONTINUOUS
 62
     7
100
AcDbHatch
 10
0.0
 20
0.0
 30
0.0
210
0.0
220
0.0
230
1.0
  2
SOLID
 70
     1
 71
     1
 91
        1
 92
        1
 93
        4
 72
     1
 10
-0.9000984251968516
 20
1.831196850393699
 11
7.974901574803153
 21
1.831171620276689
 72
     1
 10
7.974901574803153
 20
1.831171620276689
 11
7.974901574803153
 21
1.764696850393699
 72
     1
 10
7.974901574803153
 20
1.764696850393699
 11
-0.9000984251968517
 21
1.7646968503937
 72
     1
 10
-0.9000984251968516
 20
1.7646968503937
 11
-0.9000984251968516
 21
1.831196850393699
 97
        1
330
AD
 75
     0
 76
     1
 98
        1
 10
0.0
 20
0.0
  0
LINE
  5
AF
330
1F
100
AcDbEntity
  8
1
  6
DASHDOT
 62
     7
100
AcDbLine
 10
-1.044149677727089
 20
0.1739014605340294
 30
0.0
 11
-0.3995480479963158
 21
0.1739014605340294
 31
0.0
  0
LINE
  5
B0
330
1F
100
AcDbEntity
  8
1
  6
DASHDOT
 62
     7
100
AcDbLine
 10
-1.04995689961656
 20
1.676492240253373
 30
0.0
 11
-0.4053552698857822
 21
1.676492240253373
 31
0.0
  0
LINE
  5
B1
330
1F
100
AcDbEntity
  8
1
 62
     2
100
AcDbLine
 10
-0.9000984251968507
 20
0.1310262445261985
 30
0.0
 11
-0.9000984251968516
 21
0.0856968503936998
 31
0.0
  0
LINE
  5
B2
330
1F
100
AcDbEntity
  8
1
  6
DASHED
 62
     2
100
AcDbLine
 10
-0.5500984251968502
 20
0.1310262445261985
 30
0.0
 11
-0.9000984251968507
 21
0.1310262445261985
 31
0.0
  0
LINE
  5
B3
330
1F
100
AcDbEntity
  8
1
 62
     2
100
AcDbLine
 10
-0.9000984251968507
 20
0.2193763530823549
 30
0.0
 11
-0.9000984251968507
 21
0.1310262445261985
 31
0.0
  0
LINE
  5
B4
330
1F
100
AcDbEntity
  8
1
  6
DASHED
 62
     2
100
AcDbLine
 10
-0.5500984251968502
 20
0.2193763530823549
 30
0.0
 11
-0.9000984251968507
 21
0.2193763530823549
 31
0.0
  0
LINE
  5
B5
330
1F
100
AcDbEntity
  8
1
  6
DASHED
 62
     2
100
AcDbLine
 10
-0.5000984251968499
 20
0.1739014605340294
 30
0.0
 11
-0.5500984251968502
 21
0.2193763530823549
 31
0.0
  0
LINE
  5
B6
330
1F
100
AcDbEntity
  8
1
  6
DASHED
 62
     2
100
AcDbLine
 10
-0.5500984251968502
 20
0.1310262445261985
 30
0.0
 11
-0.5000984251968499
 21
0.1739014605340294
 31
0.0
  0
LINE
  5
B7
330
1F
100
AcDbEntity
  8
1
  6
DASHED
 62
     2
100
AcDbLine
 10
-0.5500984251968502
 20
0.2193763530823549
 30
0.0
 11
-0.5500984251968502
 21
0.1310262445261985
 31
0.0
  0
LINE
  5
B8
330
1F
100
AcDbEntity
  8
1
 62
     2
100
AcDbLine
 10
-0.9000984251968507
 20
1.631017347705046
 30
0.0
 11
-0.900098425196851
 21
1.191064212494642
 31
0.0
  0
LINE
  5
B9
330
1F
100
AcDbEntity
  8
1
  6
DASHED
 62
     2
100
AcDbLine
 10
-0.5500984251968517
 20
1.631017347705046
 30
0.0
 11
-0.9000984251968507
 21
1.631017347705046
 31
0.0
  0
LINE
  5
BA
330
1F
100
AcDbEntity
  8
1
  6
DASHED
 62
     2
100
AcDbLine
 10
-0.5500984251968517
 20
1.631017347705046
 30
0.0
 11
-0.5500984251968517
 21
1.719367456261204
 31
0.0
  0
LINE
  5
BB
330
1F
100
AcDbEntity
  8
1
  6
DASHED
 62
     2
100
AcDbLine
 10
-0.5000984251968522
 20
1.676492240253373
 30
0.0
 11
-0.5500984251968517
 21
1.631017347705046
 31
0.0
  0
LINE
  5
BC
330
1F
100
AcDbEntity
  8
1
  6
DASHED
 62
     2
100
AcDbLine
 10
-0.5500984251968517
 20
1.719367456261204
 30
0.0
 11
-0.5000984251968522
 21
1.676492240253373
 31
0.0
  0
LINE
  5
BD
330
1F
100
AcDbEntity
  8
1
  6
DASHED
 62
     2
100
AcDbLine
 10
-0.9000984251968507
 20
1.719367456261204
 30
0.0
 11
-0.5500984251968517
 21
1.719367456261204
 31
0.0
  0
LINE
  5
BE
330
1F
100
AcDbEntity
  8
1
 62
     2
100
AcDbLine
 10
-0.9000984251968507
 20
1.719367456261204
 30
0.0
 11
-0.9000984251968507
 21
1.631017347705046
 31
0.0
  0
LINE
  5
BF
330
1F
100
AcDbEntity
  8
1
 62
     2
100
AcDbLine
 10
7.974901574803153
 20
1.764696850393699
 30
0.0
 11
-0.9000984251968517
 21
1.7646968503937
 31
0.0
  0
LINE
  5
C0
330
1F
100
AcDbEntity
  8
1
  6
DASHDOT
 62
     7
100
AcDbLine
 10
-10.65778401992731
 20
0.9251968503937007
 30
0.0
 11
-12.24799788250886
 21
-0.6650170121878573
 31
0.0
  0
LINE
  5
C1
330
1F
100
AcDbEntity
  8
1
  6
DASHDOT
 62
     7
100
AcDbLine
 10
-10.65778401992731
 20
0.9251968503937007
 30
0.0
 11
-10.65778401992731
 21
-1.698818897637794
 31
0.0
  0
LINE
  5
C2
330
1F
100
AcDbEntity
  8
1
  6
DASHDOT
 62
     7
100
AcDbLine
 10
-10.65778401992731
 20
0.9251968503937007
 30
0.0
 11
-10.71465823918006
 21
-0.3774369331214281
 31
0.0
  0
LINE
  5
C3
330
1F
100
AcDbEntity
  8
1
  6
DASHDOT
 62
     7
100
AcDbLine
 10
-10.65778401992731
 20
0.9251968503937007
 30
0.0
 11
-8.115658220746956
 21
0.3195770590570989
 31
0.0
  0
LINE
  5
C4
330
1F
100
AcDbEntity
  8
1
  6
DASHDOT
 62
     7
100
AcDbLine
 10
-10.65778401992731
 20
0.9251968503937007
 30
0.0
 11
-8.044514246154053
 21
0.9251968503937021
 31
0.0
  0
LINE
  5
C5
330
1F
100
AcDbEntity
  8
1
  6
DASHDOT
 62
     7
100
AcDbLine
 10
-12.25889253740084
 20
2.52630536786724
 30
0.0
 11
-10.65778401992731
 21
0.9251968503937009
 31
0.0
  0
LINE
  5
C6
330
1F
100
AcDbEntity
  8
1
 62
     2
100
AcDbLine
 10
-7.500761084981513
 20
4.258996480636161
 30
0.0
 11
-6.891615680657534
 21
4.86814188496015
 31
0.0
  0
LINE
  5
C7
330
1F
100
AcDbEntity
  8
1
 62
     2
100
AcDbLine
 10
-9.950677238740762
 20
0.3510261440702261
 30
0.0
 11
-10.08361331360384
 21
0.2180900692071556
 31
0.0
  0
LINE
  5
C8
330
1F
100
AcDbEntity
  8
1
  6
DASHDOT
 62
     7
100
AcDbLine
 10
-2.406410154114039
 20
0.9251968503937035
 30
0.0
 11
9.850136225977507
 21
0.9251968503937021
 31
0.0
  0
LINE
  5
C9
330
1F
100
AcDbEntity
  8
1
 62
     2
100
AcDbLine
 10
4.193831647286831
 20
-2.056949652467459
 30
0.0
 11
2.41585567167529
 21
-2.056949652467459
 31
0.0
  0
LINE
  5
CA
330
1F
100
AcDbEntity
  8
1
 62
     2
100
AcDbLine
 10
4.193831647286831
 20
-2.069215150378739
 30
0.0
 11
2.41585567167529
 21
-2.069215150378739
 31
0.0
  0
LINE
  5
CB
330
1F
100
AcDbEntity
  8
1
  6
DASHED
 62
     2
100
AcDbLine
 10
8.131901574803151
 20
1.831171173952366
 30
0.0
 11
8.131901574803162
 21
1.988188976377952
 31
0.0
  0
LINE
  5
CC
330
1F
100
AcDbEntity
  8
1
 62
     2
100
AcDbLine
 10
-10.0171452761723
 20
1.56583559414871
 30
0.0
 11
-9.950677238740762
 21
1.499367556717174
 31
0.0
  0
LINE
  5
CD
330
1F
100
AcDbEntity
  8
1
  6
DASHDOT
 62
     7
100
AcDbLine
 10
-9.906488630067636
 20
1.67649224025337
 30
0.0
 11
-9.702232077738882
 21
1.880748792582125
 31
0.0
  0
LINE
  5
CE
330
1F
100
AcDbEntity
  8
1
 62
     2
100
AcDbLine
 10
-0.900098425196851
 20
1.056202381281014
 30
0.0
 11
-0.9000984251968507
 21
0.2193763530823549
 31
0.0
  0
LINE
  5
CF
330
1F
100
AcDbEntity
  8
1
 62
     2
100
AcDbLine
 10
8.224901574803151
 20
1.056202381281014
 30
0.0
 11
8.224901574803151
 21
1.066129745688449
 31
0.0
  0
LINE
  5
D0
330
1F
100
AcDbEntity
  8
1
 62
     2
100
AcDbLine
 10
-0.900098425196851
 20
1.056202381281014
 30
0.0
 11
8.224901574803151
 21
1.056202381281014
 31
0.0
  0
LINE
  5
D1
330
1F
100
AcDbEntity
  8
1
 62
     2
100
AcDbLine
 10
-0.9000984251968516
 20
1.066129745688449
 30
0.0
 11
-0.900098425196851
 21
1.056202381281014
 31
0.0
  0
LINE
  5
D2
330
1F
100
AcDbEntity
  8
1
 62
     2
100
AcDbLine
 10
8.224901574803151
 20
1.066129745688449
 30
0.0
 11
8.224901574803151
 21
1.181168892132753
 31
0.0
  0
LINE
  5
D3
330
1F
100
AcDbEntity
  8
1
 62
     2
100
AcDbLine
 10
-0.9000984251968516
 20
1.066129745688449
 30
0.0
 11
8.224901574803151
 21
1.066129745688449
 31
0.0
  0
LINE
  5
D4
330
1F
100
AcDbEntity
  8
1
 62
     2
100
AcDbLine
 10
-0.900098425196851
 20
1.181168892132753
 30
0.0
 11
-0.9000984251968516
 21
1.066129745688449
 31
0.0
  0
LINE
  5
D5
330
1F
100
AcDbEntity
  8
1
 62
     2
100
AcDbLine
 10
8.224901574803151
 20
1.181168892132753
 30
0.0
 11
8.224901574803151
 21
1.191064212494642
 31
0.0
  0
LINE
  5
D6
330
1F
100
AcDbEntity
  8
1
 62
     2
100
AcDbLine
 10
8.224901574803151
 20
1.181168892132753
 30
0.0
 11
-0.9000984251968517
 21
1.181168892132753
 31
0.0
  0
LINE
  5
D7
330
1F
100
AcDbEntity
  8
1
 62
     2
100
AcDbLine
 10
8.224901574803151
 20
1.191064212494642
 30
0.0
 11
8.224901574803151
 21
1.764696850393699
 31
0.0
  0
LINE
  5
D8
330
1F
100
AcDbEntity
  8
1
 62
     2
100
AcDbLine
 10
-0.900098425196851
 20
1.191064212494642
 30
0.0
 11
-0.900098425196851
 21
1.181168892132753
 31
0.0
  0
LINE
  5
D9
330
1F
100
AcDbEntity
  8
1
  6
DASHED
 62
     2
100
AcDbLine
 10
-0.900098425196851
 20
1.191064212494642
 30
0.0
 11
8.224901574803151
 21
1.191064212494642
 31
0.0
  0
LINE
  5
DA
330
1F
100
AcDbEntity
  8
1
  6
DASHED
 62
     2
100
AcDbLine
 10
8.131901574803151
 20
1.7646968503937
 30
0.0
 11
8.131901574803151
 21
0.0356968503937001
 31
0.0
  0
LINE
  5
DB
330
1F
100
AcDbEntity
  8
1
 62
     2
100
AcDbLine
 10
8.131901574803151
 20
0.0356968503937002
 30
0.0
 11
-0.9000984251968517
 21
0.0356968503937031
 31
0.0
  0
LINE
  5
DC
330
1F
100
AcDbEntity
  8
1
 62
     2
100
AcDbLine
 10
8.224901574803151
 20
-0.0447952755905523
 30
0.0
 11
8.224901574803151
 21
0.0356968503937001
 31
0.0
  0
LINE
  5
DD
330
1F
100
AcDbEntity
  8
1
 62
     2
100
AcDbLine
 10
8.224901574803151
 20
1.895188976377952
 30
0.0
 11
8.131901574803162
 21
1.988188976377952
 31
0.0
  0
LINE
  5
DE
330
1F
100
AcDbEntity
  8
1
 62
     2
100
AcDbLine
 10
-9.823317752203349
 20
0.2675072779663797
 30
0.0
 11
-9.906836618307195
 21
0.3510261440702261
 31
0.0
  0
LINE
  5
DF
330
1F
100
AcDbEntity
  8
1
  6
DASHDOT
 62
     7
100
AcDbLine
 10
-9.702232077738887
 20
-0.0303550917947235
 30
0.0
 11
-10.19710273654288
 21
0.4645155670092724
 31
0.0
  0
LINE
  5
E0
330
1F
100
AcDbEntity
  8
1
 62
     2
100
AcDbLine
 10
-10.08361331360384
 20
0.1742494487735895
 30
0.0
 11
-10.00009444749998
 21
0.0907305826697428
 31
0.0
  0
LINE
  5
E1
330
1F
100
AcDbEntity
  8
1
 62
     2
100
AcDbLine
 10
-9.906836618307194
 20
1.499367556717174
 30
0.0
 11
-9.823317752203349
 21
1.582886422821021
 31
0.0
  0
LINE
  5
E2
330
1F
100
AcDbEntity
  8
1
 62
     2
100
AcDbLine
 10
-10.08361331360383
 20
1.632303631580245
 30
0.0
 11
-10.0171452761723
 21
1.56583559414871
 31
0.0
  0
LINE
  5
E3
330
1F
100
AcDbEntity
  8
1
  6
DASHDOT
 62
     7
100
AcDbLine
 10
-10.19710273654288
 20
1.385878133778129
 30
0.0
 11
-9.906488630067636
 21
1.67649224025337
 31
0.0
  0
LINE
  5
E4
330
1F
100
AcDbEntity
  8
1
 62
     2
100
AcDbLine
 10
-10.00009444749998
 20
1.759663118117661
 30
0.0
 11
-10.08361331360383
 21
1.676144252013811
 31
0.0
  0
LINE
  5
E5
330
1F
100
AcDbEntity
  8
1
 62
     2
100
AcDbLine
 10
8.224901574803151
 20
0.0856968503936998
 30
0.0
 11
8.224901574803151
 21
1.056202381281014
 31
0.0
  0
LINE
  5
E6
330
1F
100
AcDbEntity
  8
1
 62
     2
100
AcDbLine
 10
-0.9000984251968516
 20
1.7646968503937
 30
0.0
 11
-0.9000984251968507
 21
1.719367456261204
 31
0.0
  0
LINE
  5
E7
330
1F
100
AcDbEntity
  8
1
 62
     2
100
AcDbLine
 10
-0.9000984251968528
 20
1.988188976377954
 30
0.0
 11
-0.9000984251968516
 21
1.831196850393699
 31
0.0
  0
LINE
  5
E8
330
1F
100
AcDbEntity
  8
1
 62
     2
100
AcDbLine
 10
-0.9000984251968516
 20
1.831196850393699
 30
0.0
 11
-0.9000984251968516
 21
1.7646968503937
 31
0.0
  0
LINE
  5
E9
330
1F
100
AcDbEntity
  8
1
 62
     2
100
AcDbLine
 10
8.224901574803151
 20
1.764696850393699
 30
0.0
 11
7.974901574803153
 21
1.764696850393699
 31
0.0
  0
LINE
  5
EA
330
1F
100
AcDbEntity
  8
1
 62
     2
100
AcDbLine
 10
8.224901574803151
 20
0.0356968503937001
 30
0.0
 11
8.224901574803151
 21
0.0856968503936998
 31
0.0
  0
LINE
  5
EB
330
1F
100
AcDbEntity
  8
1
 62
     2
100
AcDbLine
 10
-0.9000984251968516
 20
0.0856968503936998
 30
0.0
 11
8.224901574803151
 21
0.0856968503936998
 31
0.0
  0
LINE
  5
EC
330
1F
100
AcDbEntity
  8
1
 62
     2
100
AcDbLine
 10
-0.9000984251968516
 20
0.0856968503936998
 30
0.0
 11
-0.9000984251968516
 21
0.0356968503937031
 31
0.0
  0
LINE
  5
ED
330
1F
100
AcDbEntity
  8
1
 62
     2
100
AcDbLine
 10
8.131901574803151
 20
-0.1372952792942257
 30
0.0
 11
8.224901574803151
 21
-0.0447952755905523
 31
0.0
  0
LINE
  5
EE
330
1F
100
AcDbEntity
  8
1
 62
     2
100
AcDbLine
 10
8.224901574803151
 20
0.0356968503937001
 30
0.0
 11
8.131901574803151
 21
0.0356968503937002
 31
0.0
  0
LINE
  5
EF
330
1F
100
AcDbEntity
  8
1
 62
     2
100
AcDbLine
 10
-0.9000984251968516
 20
0.0356968503937031
 30
0.0
 11
-0.9000984251968528
 21
-0.1372952792942257
 31
0.0
  0
LINE
  5
F0
330
1F
100
AcDbEntity
  8
1
 62
     2
100
AcDbLine
 10
-0.9000984251968528
 20
-0.1372952792942257
 30
0.0
 11
8.131901574803151
 21
-0.1372952792942257
 31
0.0
  0
LINE
  5
F1
330
1F
100
AcDbEntity
  8
1
 62
     2
100
AcDbLine
 10
8.224901574803151
 20
1.764696850393699
 30
0.0
 11
8.224901574803151
 21
1.895188976377952
 31
0.0
  0
LINE
  5
F2
330
1F
100
AcDbEntity
  8
1
 62
     2
100
AcDbLine
 10
8.131901574803162
 20
1.988188976377952
 30
0.0
 11
-0.9000984251968535
 21
1.988188976377954
 31
0.0
  0
LINE
  5
F3
330
1F
100
AcDbEntity
  8
1
 62
     2
100
AcDbLine
 10
-9.858570865693467
 20
0.6682560321113779
 30
0.0
 11
-9.80750088496282
 21
0.6560894465381429
 31
0.0
  0
LINE
  5
F4
330
1F
100
AcDbEntity
  8
1
 62
     2
100
AcDbLine
 10
-9.80750088496282
 20
0.6560894465381429
 30
0.0
 11
-9.778015632291666
 21
0.7798555826237319
 31
0.0
  0
LINE
  5
F5
330
1F
100
AcDbEntity
  8
1
 62
     2
100
AcDbLine
 10
-9.778015632291666
 20
0.7798555826237319
 30
0.0
 11
-9.828920766772956
 21
0.7919828962808527
 31
0.0
  0
LINE
  5
F6
330
1F
100
AcDbEntity
  8
1
 62
     2
100
AcDbLine
 10
-10.55882665336899
 20
1.758844071707274
 30
0.0
 11
-10.55654406101698
 21
1.811124031780431
 31
0.0
  0
LINE
  5
F7
330
1F
100
AcDbEntity
  8
1
 62
     2
100
AcDbLine
 10
-10.55654406101698
 20
1.811124031780431
 30
0.0
 11
-10.68365282359851
 21
1.816673720206676
 31
0.0
  0
LINE
  5
F8
330
1F
100
AcDbEntity
  8
1
 62
     2
100
AcDbLine
 10
-10.68365282359851
 20
1.816673720206676
 30
0.0
 11
-10.68594280767617
 21
1.764224461782333
 31
0.0
  0
LINE
  5
F9
330
1F
100
AcDbEntity
  8
1
 62
     2
100
AcDbLine
 10
-11.4576787851449
 20
1.180007789282717
 30
0.0
 11
-11.50858391962618
 21
1.192135102939837
 31
0.0
  0
LINE
  5
FA
330
1F
100
AcDbEntity
  8
1
 62
     2
100
AcDbLine
 10
-11.50858391962618
 20
1.192135102939837
 30
0.0
 11
-11.52306816359456
 21
1.131336610551754
 31
0.0
  0
LINE
  5
FB
330
1F
100
AcDbEntity
  8
1
 62
     2
100
AcDbLine
 10
-11.53806917229734
 20
1.068368966854249
 30
0.0
 11
-11.4869991915667
 21
1.056202381281014
 31
0.0
  0
LINE
  5
FC
330
1F
100
AcDbEntity
  8
1
 62
     2
100
AcDbLine
 10
-10.75896172964378
 20
0.0918161924368898
 30
0.0
 11
-10.76125171372144
 21
0.0393669340125483
 31
0.0
  0
LINE
  5
FD
330
1F
100
AcDbEntity
  8
1
 62
     2
100
AcDbLine
 10
-10.76125171372144
 20
0.0393669340125483
 30
0.0
 11
-10.63414295113991
 21
0.0338172455863042
 31
0.0
  0
LINE
  5
FE
330
1F
100
AcDbEntity
  8
1
 62
     2
100
AcDbLine
 10
-10.63414295113991
 20
0.0338172455863042
 30
0.0
 11
-10.6318603587879
 21
0.0860972056594594
 31
0.0
  0
LINE
  5
FF
330
1F
100
AcDbEntity
  8
1
  6
DASHDOT
 62
     7
100
AcDbLine
 10
-13.16207378757535
 20
1.521802827571701
 30
0.0
 11
-11.4744293696841
 21
1.119749215377046
 31
0.0
  0
LINE
  5
100
330
1F
100
AcDbEntity
  8
1
  6
DASHDOT
 62
     7
100
AcDbLine
 10
-10.65778401992731
 20
3.439058263124949
 30
0.0
 11
-10.65778401992731
 21
0.9251968503937009
 31
0.0
  0
LINE
  5
101
330
1F
100
AcDbEntity
  8
1
 62
     2
100
AcDbLine
 10
-0.9000984251968516
 20
1.831196850393699
 30
0.0
 11
7.974901574803153
 21
1.831171620276689
 31
0.0
  0
LINE
  5
102
330
1F
100
AcDbEntity
  8
1
  6
DASHDOT
 62
     7
100
AcDbLine
 10
-10.54813092518261
 20
3.436665624086113
 30
0.0
 11
-10.65778401992731
 21
0.9251968503937009
 31
0.0
  0
LINE
  5
103
330
1F
100
AcDbEntity
  8
1
  6
DASHDOT
 62
     7
100
AcDbLine
 10
-11.4744293696841
 20
1.119749215377046
 30
0.0
 11
-10.65778401992731
 21
0.9251968503937007
 31
0.0
  0
LINE
  5
104
330
1F
100
AcDbEntity
  8
1
 62
     2
100
AcDbLine
 10
-11.52306816359456
 20
1.131336610551754
 30
0.0
 11
-11.53806917229734
 21
1.068368966854249
 31
0.0
  0
LINE
  5
105
330
1F
100
AcDbEntity
  8
1
 62
     7
100
AcDbLine
 10
-11.06919902899323
 20
-0.0544087926913487
 30
0.0
 11
-11.17550647098465
 21
-0.3075336612107881
 31
0.0
  0
LINE
  5
106
330
1F
100
AcDbEntity
  8
1
 62
     2
100
AcDbLine
 10
7.974901574803153
 20
1.831171620276689
 30
0.0
 11
7.974901574803153
 21
1.764696850393699
 31
0.0
  0
LINE
  5
107
330
1F
100
AcDbEntity
  8
1
  6
DASHED
 62
     7
100
AcDbLine
 10
-10.19710273654288
 20
1.385878133778129
 30
0.0
 11
-10.65778401992731
 21
0.9251968503937007
 31
0.0
  0
LINE
  5
108
330
1F
100
AcDbEntity
  8
1
  6
DASHDOT
 62
     7
100
AcDbLine
 10
-13.2067082710217
 20
0.9251968503937007
 30
0.0
 11
-10.65778401992731
 21
0.9251968503937007
 31
0.0
  0
LINE
  5
109
330
1F
100
AcDbEntity
  8
1
  6
DASHED
 62
     7
100
AcDbLine
 10
-8.537043476617682
 20
4.270018687038173
 30
0.0
 11
-7.366413830377818
 21
3.099389040798314
 31
0.0
  0
LINE
  5
10A
330
1F
100
AcDbEntity
  8
1
 62
     2
100
AcDbLine
 10
-6.891615680657534
 20
4.86814188496015
 30
0.0
 11
-6.73675929557768
 21
5.022998270040003
 31
0.0
  0
LINE
  5
10B
330
1F
100
AcDbEntity
  8
1
 62
     2
100
AcDbLine
 10
-6.714838985360894
 20
4.691365189663513
 30
0.0
 11
-7.394775872599629
 21
4.011428302424774
 31
0.0
  0
LINE
  5
10C
330
1F
100
AcDbEntity
  8
1
 62
     2
100
AcDbLine
 10
-6.310474422648034
 20
4.596713397110358
 30
0.0
 11
-6.559982600281044
 21
4.846221574743367
 31
0.0
  0
LINE
  5
10D
330
1F
100
AcDbEntity
  8
1
  6
DASHDOT
 62
     7
100
AcDbLine
 10
-7.576343238913669
 20
4.006637631407343
 30
0.0
 11
-6.379701848792331
 21
5.203279021528684
 31
0.0
  0
LINE
  5
10E
330
1F
100
AcDbEntity
  8
1
 62
     2
100
AcDbLine
 10
-6.73675929557768
 20
5.022998270040003
 30
0.0
 11
-7.08289808266696
 21
5.369137057129282
 31
0.0
  0
LINE
  5
10F
330
1F
100
AcDbEntity
  8
1
 62
     2
100
AcDbLine
 10
-6.559982600281044
 20
4.846221574743367
 30
0.0
 11
-6.714838985360894
 21
4.691365189663513
 31
0.0
  0
LINE
  5
110
330
1F
100
AcDbEntity
  8
1
 62
     2
100
AcDbLine
 10
-6.758679605794463
 20
4.691365189663513
 30
0.0
 11
-6.891615680657534
 21
4.824301264526584
 31
0.0
  0
LINE
  5
111
330
1F
100
AcDbEntity
  8
1
 62
    13
100
AcDbLine
 10
-6.581902910497827
 20
4.86814188496015
 30
0.0
 11
-6.714838985360898
 21
5.001077959823219
 31
0.0
  0
LINE
  5
112
330
1F
100
AcDbEntity
  8
1
 62
     2
100
AcDbLine
 10
-5.144100714699778
 20
2.853249358672359
 30
0.0
 11
-6.572022488291561
 21
2.853249358672359
 31
0.0
  0
LINE
  5
113
330
1F
100
AcDbEntity
  8
1
 62
     2
100
AcDbLine
 10
-5.144100714699778
 20
2.840983860761079
 30
0.0
 11
-6.572022488291561
 21
2.840983860761079
 31
0.0
  0
LINE
  5
114
330
1F
100
AcDbEntity
  8
1
 62
     2
100
AcDbLine
 10
-9.967219300763961
 20
1.438984874260409
 30
0.0
 11
-9.93696458002284
 21
1.469239595001529
 31
0.0
  0
LINE
  5
115
330
1F
100
AcDbEntity
  8
1
 62
     2
100
AcDbLine
 10
-10.14570852742328
 20
1.614049038194359
 30
0.0
 11
-10.10746199365624
 21
1.652295571961412
 31
0.0
  0
LINE
  5
116
330
1F
100
AcDbEntity
  8
1
 62
     2
100
AcDbLine
 10
-10.14399599606059
 20
0.2346321312303471
 30
0.0
 11
-10.11374127531949
 21
0.2043774104892264
 31
0.0
  0
LINE
  5
117
330
1F
100
AcDbEntity
  8
1
 62
     2
100
AcDbLine
 10
-9.968931832126651
 20
0.4131213578896749
 30
0.0
 11
-9.930685298359598
 21
0.3748748241226207
 31
0.0
  0
ARC
  5
118
330
1F
100
AcDbEntity
  8
1
 62
     2
100
AcDbCircle
 10
-11.40907940978697
 20
0.1739014605340294
 30
0.0
 40
0.0624999999999954
100
AcDbArc
 50
316.6854255283624
 51
133.314574471634
  0
ARC
  5
119
330
1F
100
AcDbEntity
  8
1
 62
     2
100
AcDbCircle
 10
-11.40907940978697
 20
1.676492240253373
 30
0.0
 40
0.0624999999999996
100
AcDbArc
 50
226.6854255283663
 51
43.31457447163752
  0
ARC
  5
11A
330
1F
100
AcDbEntity
  8
1
 62
     2
100
AcDbCircle
 10
-10.65778401992731
 20
0.9251968503937007
 30
0.0
 40
1.062492129687927
100
AcDbArc
 50
51.75637731072488
 51
138.3708510567317
  0
ARC
  5
11B
330
1F
100
AcDbEntity
  8
1
 62
     2
100
AcDbCircle
 10
-10.65778401992731
 20
0.9251968503937007
 30
0.0
 40
1.062492129687927
100
AcDbArc
 50
138.3708510567317
 51
225.0000000000001
  0
ARC
  5
11C
330
1F
100
AcDbEntity
  8
1
 62
     2
100
AcDbCircle
 10
-10.65778401992731
 20
0.9251968503937007
 30
0.0
 40
1.062492129687929
100
AcDbArc
 50
247.2185568739483
 51
308.2436226892752
  0
ARC
  5
11D
330
1F
100
AcDbEntity
  8
1
 62
     2
100
AcDbCircle
 10
-10.65778401992731
 20
0.9251968503937007
 30
0.0
 40
0.8395000000000015
100
AcDbArc
 50
350.869568233843
 51
83.23043176615668
  0
ARC
  5
11E
330
1F
100
AcDbEntity
  8
1
 62
     2
100
AcDbCircle
 10
-10.65778401992731
 20
0.9251968503937007
 30
0.0
 40
0.8395000000000008
100
AcDbArc
 50
271.769568233843
 51
342.1778053843328
  0
ARC
  5
11F
330
1F
100
AcDbEntity
  8
1
 62
     2
100
AcDbCircle
 10
-10.65778401992731
 20
0.9251968503937007
 30
0.0
 40
0.8395000000000043
100
AcDbArc
 50
171.0221946156671
 51
263.0778053843332
  0
ARC
  5
120
330
1F
100
AcDbEntity
  8
1
 62
     2
100
AcDbCircle
 10
-10.65778401992731
 20
0.9251968503937007
 30
0.0
 40
0.8395000000000004
100
AcDbArc
 50
91.92219461566713
 51
162.330431766157
  0
ARC
  5
121
330
1F
100
AcDbEntity
  8
1
 62
     2
100
AcDbCircle
 10
-10.65778401992731
 20
0.9251968503937007
 30
0.0
 40
1.062492129687929
100
AcDbArc
 50
321.7563773107248
 51
38.24362268927512
  0
ARC
  5
122
330
1F
100
AcDbEntity
  8
1
 62
     2
100
AcDbCircle
 10
-9.928756928523981
 20
0.3291058338534429
 30
0.0
 40
0.0310000000000006
100
AcDbArc
 50
44.99999999999957
 51
135.0000000000028
  0
ARC
  5
123
330
1F
100
AcDbEntity
  8
1
 62
     2
100
AcDbCircle
 10
-10.06169300338705
 20
0.1961697589903726
 30
0.0
 40
0.0309999999999979
100
AcDbArc
 50
134.9999999999959
 51
225.000000000004
  0
ARC
  5
124
330
1F
100
AcDbEntity
  8
1
 62
     2
100
AcDbCircle
 10
-9.928756928523981
 20
1.521287866933958
 30
0.0
 40
0.0310000000000017
100
AcDbArc
 50
224.999999999997
 51
315.0000000000028
  0
ARC
  5
125
330
1F
100
AcDbEntity
  8
1
 62
     2
100
AcDbCircle
 10
-10.06169300338705
 20
1.654223941797028
 30
0.0
 40
0.0309999999999978
100
AcDbArc
 50
134.9999999999961
 51
225.0000000000052
  0
ARC
  5
126
330
1F
100
AcDbEntity
  8
1
 62
     2
100
AcDbCircle
 10
-10.65778401992731
 20
0.9251968503937007
 30
0.0
 40
1.062492129687927
100
AcDbArc
 50
225.0000000000001
 51
247.2185568739483
  0
ARC
  5
127
330
1F
100
AcDbEntity
  8
1
 62
     2
100
AcDbCircle
 10
-6.736759295577679
 20
4.713285499880294
 30
0.0
 40
0.0309999999999983
100
AcDbArc
 50
225.0
 51
315.0000000000035
  0
ARC
  5
128
330
1F
100
AcDbEntity
  8
1
 62
     2
100
AcDbCircle
 10
-6.86969537044075
 20
4.846221574743368
 30
0.0
 40
0.0310000000000008
100
AcDbArc
 50
135.0000000000022
 51
224.9999999999988
  0
LWPOLYLINE
  5
129
330
1F
100
AcDbEntity
  8
1
 62
     2
100
AcDbPolyline
 90
        7
 70
     0
 43
0.0
 10
-7.500761084981524
 20
4.258996480636113
 42
0.144108304268705
 10
-7.461913418949527
 20
4.539141447295281
 42
-0.0388179339659788
 10
-7.625033943425581
 20
4.67347599686379
 42
-0.3173227120147649
 10
-7.529080693733789
 20
4.865382496247368
 42
0.0659087112724604
 10
-7.27960224453513
 20
5.009312370785061
 42
0.0959156690645981
 10
-7.268506466360877
 20
5.255020088105152
 42
-0.5430502145631709
 10
-7.08289808266696
 20
5.369137057129282
  0
LWPOLYLINE
  5
12A
330
1F
100
AcDbEntity
  8
1
 62
     2
100
AcDbPolyline
 90
        6
 70
     0
 43
0.0
 10
-6.310474422648034
 20
4.596713397110358
 42
0.2610062365565243
 10
-6.557168781024075
 20
4.411431317137958
 42
-0.0886389555982387
 10
-6.738182927437307
 20
4.055313649021111
 42
-0.2037984645486259
 10
-7.060268724331803
 20
3.90881886967929
 42
-0.0603249323482586
 10
-7.317683108015692
 20
3.968683153940217
 10
-7.394775872599629
 20
4.011428302424774
  0
LWPOLYLINE
  5
12B
330
1F
100
AcDbEntity
  8
1
 62
     2
100
AcDbPolyline
 90
        4
 70
     0
 43
0.0
 10
-7.500761084981513
 20
4.258996480636161
 42
0.0409209835005622
 10
-7.504784719534569
 20
4.217390399051511
 10
-7.492284196406249
 20
4.145880856252377
 42
0.126796986956233
 10
-7.394775872599629
 20
4.011428302424774
  0
LINE
  5
12C
330
1F
100
AcDbEntity
  8
1
 62
     7
100
AcDbLine
 10
-13.05411195227919
 20
-2.0951917785656
 30
0.0
 11
-13.5721828200265
 21
-2.0951917785656
 31
0.0
  0
LINE
  5
12D
330
1F
100
AcDbEntity
  8
1
 62
     7
100
AcDbLine
 10
-13.5721828200265
 20
-2.0951917785656
 30
0.0
 11
-12.7164123835789
 21
-0.300219247521085
 31
0.0
  0
LINE
  5
12E
330
1F
100
AcDbEntity
  8
1
 62
     7
100
AcDbLine
 10
-12.7164123835789
 20
-0.300219247521085
 30
0.0
 11
-11.40907940978697
 21
0.1739014605340294
 31
0.0
  0
LWPOLYLINE
  5
12F
102
{ACAD_REACTORS
330
130
102
}
330
1F
100
AcDbEntity
  8
1
  6
CONTINUOUS
 62
     7
100
AcDbPolyline
 90
        3
 70
     1
 43
0.0
 10
-11.54873095808221
 20
0.1014083859587999
 10
-11.5627350353047
 20
0.1400230079515757
 10
-11.40907940978697
 20
0.1739014605340294
  0
HATCH
  5
130
330
1F
100
AcDbEntity
  8
1
  6
CONTINUOUS
 62
     7
100
AcDbHatch
 10
0.0
 20
0.0
 30
0.0
210
0.0
220
0.0
230
1.0
  2
SOLID
 70
     1
 71
     1
 91
        1
 92
        1
 93
        3
 72
     1
 10
-11.54873095808221
 20
0.1014083859587999
 11
-11.5627350353047
 21
0.1400230079515757
 72
     1
 10
-11.5627350353047
 20
0.1400230079515757
 11
-11.40907940978697
 21
0.1739014605340294
 72
     1
 10
-11.40907940978697
 20
0.1739014605340294
 11
-11.54873095808221
 21
0.1014083859587999
 97
        1
330
12F
 75
     0
 76
     1
 98
        1
 10
0.0
 20
0.0
  0
LINE
  5
131
330
1F
100
AcDbEntity
  8
1
 62
     7
100
AcDbLine
 10
8.754309830613911
 20
-0.3939285157697681
 30
0.0
 11
8.563080426073559
 21
-0.3939285157697681
 31
0.0
  0
LINE
  5
132
330
1F
100
AcDbEntity
  8
1
 62
     7
100
AcDbLine
 10
8.563080426073559
 20
-0.3939285157697681
 30
0.0
 11
8.179809274874587
 21
-0.0898875755191171
 31
0.0
  0
LWPOLYLINE
  5
133
102
{ACAD_REACTORS
330
134
102
}
330
1F
100
AcDbEntity
  8
1
  6
CONTINUOUS
 62
     7
100
AcDbPolyline
 90
        3
 70
     1
 43
0.0
 10
8.314788276148894
 20
-0.170748381955953
 10
8.289260661503943
 20
-0.2029282530097261
 10
8.179809274874587
 20
-0.0898875755191171
  0
HATCH
  5
134
330
1F
100
AcDbEntity
  8
1
  6
CONTINUOUS
 62
     7
100
AcDbHatch
 10
0.0
 20
0.0
 30
0.0
210
0.0
220
0.0
230
1.0
  2
SOLID
 70
     1
 71
     1
 91
        1
 92
        1
 93
        3
 72
     1
 10
8.314788276148894
 20
-0.170748381955953
 11
8.289260661503943
 21
-0.2029282530097261
 72
     1
 10
8.289260661503943
 20
-0.2029282530097261
 11
8.179809274874587
 21
-0.0898875755191171
 72
     1
 10
8.179809274874587
 20
-0.0898875755191171
 11
8.314788276148894
 21
-0.170748381955953
 97
        1
330
133
 75
     0
 76
     1
 98
        1
 10
0.0
 20
0.0
  0
LINE
  5
135
330
1F
100
AcDbEntity
  8
1
 62
     7
100
AcDbLine
 10
-8.715549272748287
 20
2.867431597572704
 30
0.0
 11
-8.225730979413972
 21
2.377613304238384
 31
0.0
  0
LWPOLYLINE
  5
136
102
{ACAD_REACTORS
330
137
102
}
330
1F
100
AcDbEntity
  8
1
  6
CONTINUOUS
 62
     7
100
AcDbPolyline
 90
        3
 70
     1
 43
0.0
 10
-8.350562047592527
 20
2.473399551790033
 10
-8.321517226965619
 20
2.50244437241694
 10
-8.225730979413972
 20
2.377613304238384
  0
HATCH
  5
137
330
1F
100
AcDbEntity
  8
1
  6
CONTINUOUS
 62
     7
100
AcDbHatch
 10
0.0
 20
0.0
 30
0.0
210
0.0
220
0.0
230
1.0
  2
SOLID
 70
     1
 71
     1
 91
        1
 92
        1
 93
        3
 72
     1
 10
-8.350562047592527
 20
2.473399551790033
 11
-8.321517226965619
 21
2.50244437241694
 72
     1
 10
-8.321517226965619
 20
2.50244437241694
 11
-8.225730979413972
 21
2.377613304238384
 72
     1
 10
-8.225730979413972
 20
2.377613304238384
 11
-8.350562047592527
 21
2.473399551790033
 97
        1
330
136
 75
     0
 76
     1
 98
        1
 10
0.0
 20
0.0
  0
LINE
  5
138
330
1F
100
AcDbEntity
  8
1
 62
     7
100
AcDbLine
 10
-10.65778401992731
 20
-1.570739412788313
 30
0.0
 11
-10.1831148717399
 21
-1.570739412788313
 31
0.0
  0
LWPOLYLINE
  5
139
102
{ACAD_REACTORS
330
13A
102
}
330
1F
100
AcDbEntity
  8
1
  6
CONTINUOUS
 62
     7
100
AcDbPolyline
 90
        3
 70
     1
 43
0.0
 10
-10.3391148717399
 20
-1.591277202411946
 10
-10.3391148717399
 20
-1.550201623164678
 10
-10.1831148717399
 20
-1.570739412788313
  0
HATCH
  5
13A
330
1F
100
AcDbEntity
  8
1
  6
CONTINUOUS
 62
     7
100
AcDbHatch
 10
0.0
 20
0.0
 30
0.0
210
0.0
220
0.0
230
1.0
  2
SOLID
 70
     1
 71
     1
 91
        1
 92
        1
 93
        3
 72
     1
 10
-10.3391148717399
 20
-1.591277202411946
 11
-10.3391148717399
 21
-1.550201623164678
 72
     1
 10
-10.3391148717399
 20
-1.550201623164678
 11
-10.1831148717399
 21
-1.570739412788313
 72
     1
 10
-10.1831148717399
 20
-1.570739412788313
 11
-10.3391148717399
 21
-1.591277202411946
 97
        1
330
139
 75
     0
 76
     1
 98
        1
 10
0.0
 20
0.0
  0
LINE
  5
13B
330
1F
100
AcDbEntity
  8
1
 62
     7
100
AcDbLine
 10
-9.416333805665047
 20
0.0142299056486385
 30
0.0
 11
-10.00009444749998
 21
0.0907305826697428
 31
0.0
  0
LWPOLYLINE
  5
13C
102
{ACAD_REACTORS
330
13D
102
}
330
1F
100
AcDbEntity
  8
1
  6
CONTINUOUS
 62
     7
100
AcDbPolyline
 90
        3
 70
     1
 43
0.0
 10
-9.842748357429131
 20
0.0908240815340904
 10
-9.848085596148152
 20
0.0500967308547899
 10
-10.00009444749998
 20
0.0907305826697428
  0
HATCH
  5
13D
330
1F
100
AcDbEntity
  8
1
  6
CONTINUOUS
 62
     7
100
AcDbHatch
 10
0.0
 20
0.0
 30
0.0
210
0.0
220
0.0
230
1.0
  2
SOLID
 70
     1
 71
     1
 91
        1
 92
        1
 93
        3
 72
     1
 10
-9.842748357429131
 20
0.0908240815340904
 11
-9.848085596148152
 21
0.0500967308547899
 72
     1
 10
-9.848085596148152
 20
0.0500967308547899
 11
-10.00009444749998
 21
0.0907305826697428
 72
     1
 10
-10.00009444749998
 20
0.0907305826697428
 11
-9.842748357429131
 21
0.0908240815340904
 97
        1
330
13C
 75
     0
 76
     1
 98
        1
 10
0.0
 20
0.0
  0
LINE
  5
13E
330
1F
100
AcDbEntity
  8
1
 62
     7
100
AcDbLine
 10
-9.205039769380706
 20
0.0142299056486385
 30
0.0
 11
-9.416333805665047
 21
0.0142299056486385
 31
0.0
  0
LINE
  5
13F
330
1F
100
AcDbEntity
  8
1
 62
     7
100
AcDbLine
 10
-9.416333805665047
 20
0.0142299056486385
 30
0.0
 11
-9.823317752203349
 21
0.2675072779663797
 31
0.0
  0
LWPOLYLINE
  5
140
102
{ACAD_REACTORS
330
141
102
}
330
1F
100
AcDbEntity
  8
1
  6
CONTINUOUS
 62
     7
100
AcDbPolyline
 90
        3
 70
     1
 43
0.0
 10
-9.680019708700706
 20
0.2025190364842505
 10
-9.701722665730752
 20
0.1676451943292673
 10
-9.823317752203349
 20
0.2675072779663797
  0
HATCH
  5
141
330
1F
100
AcDbEntity
  8
1
  6
CONTINUOUS
 62
     7
100
AcDbHatch
 10
0.0
 20
0.0
 30
0.0
210
0.0
220
0.0
230
1.0
  2
SOLID
 70
     1
 71
     1
 91
        1
 92
        1
 93
        3
 72
     1
 10
-9.680019708700706
 20
0.2025190364842505
 11
-9.701722665730752
 21
0.1676451943292673
 72
     1
 10
-9.701722665730752
 20
0.1676451943292673
 11
-9.823317752203349
 21
0.2675072779663797
 72
     1
 10
-9.823317752203349
 20
0.2675072779663797
 11
-9.680019708700706
 21
0.2025190364842505
 97
        1
330
140
 75
     0
 76
     1
 98
        1
 10
0.0
 20
0.0
  0
LINE
  5
142
330
1F
100
AcDbEntity
  8
1
 62
     7
100
AcDbLine
 10
-10.65778401992731
 20
0.9251968503937007
 30
0.0
 11
-11.06919902899323
 21
-0.0544087926913487
 31
0.0
  0
LWPOLYLINE
  5
143
102
{ACAD_REACTORS
330
144
102
}
330
1F
100
AcDbEntity
  8
1
  6
CONTINUOUS
 62
     7
100
AcDbPolyline
 90
        3
 70
     1
 43
0.0
 10
-11.02772878599443
 20
0.0973740118295997
 10
-10.9898575697291
 20
0.0814688494888995
 10
-11.06919902899323
 20
-0.0544087926913487
  0
HATCH
  5
144
330
1F
100
AcDbEntity
  8
1
  6
CONTINUOUS
 62
     7
100
AcDbHatch
 10
0.0
 20
0.0
 30
0.0
210
0.0
220
0.0
230
1.0
  2
SOLID
 70
     1
 71
     1
 91
        1
 92
        1
 93
        3
 72
     1
 10
-11.02772878599443
 20
0.0973740118295997
 11
-10.9898575697291
 21
0.0814688494888995
 72
     1
 10
-10.9898575697291
 20
0.0814688494888995
 11
-11.06919902899323
 21
-0.0544087926913487
 72
     1
 10
-11.06919902899323
 20
-0.0544087926913487
 11
-11.02772878599443
 21
0.0973740118295997
 97
        1
330
143
 75
     0
 76
     1
 98
        1
 10
0.0
 20
0.0
  0
LINE
  5
145
330
1F
100
AcDbEntity
  8
1
 62
     7
100
AcDbLine
 10
-10.65778401992731
 20
0.9251968503937007
 30
0.0
 11
-10.24636901086138
 21
1.904802493478752
 31
0.0
  0
LWPOLYLINE
  5
146
102
{ACAD_REACTORS
330
147
102
}
330
1F
100
AcDbEntity
  8
1
  6
CONTINUOUS
 62
     7
100
AcDbPolyline
 90
        3
 70
     1
 43
0.0
 10
-10.28783925386018
 20
1.753019688957803
 10
-10.3257104701255
 20
1.768924851298504
 10
-10.24636901086138
 20
1.904802493478752
  0
HATCH
  5
147
330
1F
100
AcDbEntity
  8
1
  6
CONTINUOUS
 62
     7
100
AcDbHatch
 10
0.0
 20
0.0
 30
0.0
210
0.0
220
0.0
230
1.0
  2
SOLID
 70
     1
 71
     1
 91
        1
 92
        1
 93
        3
 72
     1
 10
-10.28783925386018
 20
1.753019688957803
 11
-10.3257104701255
 21
1.768924851298504
 72
     1
 10
-10.3257104701255
 20
1.768924851298504
 11
-10.24636901086138
 21
1.904802493478752
 72
     1
 10
-10.24636901086138
 20
1.904802493478752
 11
-10.28783925386018
 21
1.753019688957803
 97
        1
330
146
 75
     0
 76
     1
 98
        1
 10
0.0
 20
0.0
  0
LINE
  5
148
330
1F
100
AcDbEntity
  8
1
 62
     7
100
AcDbLine
 10
-7.366413830377818
 20
3.099389040798314
 30
0.0
 11
-7.551123836034518
 21
2.914679035141615
 31
0.0
  0
LWPOLYLINE
  5
149
102
{ACAD_REACTORS
330
14A
102
}
330
1F
100
AcDbEntity
  8
1
  6
CONTINUOUS
 62
     7
100
AcDbPolyline
 90
        3
 70
     1
 43
0.0
 10
-7.455337588482871
 20
3.03951010332017
 10
-7.426292767855963
 20
3.010465282693261
 10
-7.551123836034518
 20
2.914679035141615
  0
HATCH
  5
14A
330
1F
100
AcDbEntity
  8
1
  6
CONTINUOUS
 62
     7
100
AcDbHatch
 10
0.0
 20
0.0
 30
0.0
210
0.0
220
0.0
230
1.0
  2
SOLID
 70
     1
 71
     1
 91
        1
 92
        1
 93
        3
 72
     1
 10
-7.455337588482871
 20
3.03951010332017
 11
-7.426292767855963
 21
3.010465282693261
 72
     1
 10
-7.426292767855963
 20
3.010465282693261
 11
-7.551123836034518
 21
2.914679035141615
 72
     1
 10
-7.551123836034518
 20
2.914679035141615
 11
-7.455337588482871
 21
3.03951010332017
 97
        1
330
149
 75
     0
 76
     1
 98
        1
 10
0.0
 20
0.0
  0
LINE
  5
14B
330
1F
100
AcDbEntity
  8
1
 62
     7
100
AcDbLine
 10
-8.537043476617682
 20
4.270018687038173
 30
0.0
 11
-8.72175348227438
 21
4.085308681381473
 31
0.0
  0
LWPOLYLINE
  5
14C
102
{ACAD_REACTORS
330
14D
102
}
330
1F
100
AcDbEntity
  8
1
  6
CONTINUOUS
 62
     7
100
AcDbPolyline
 90
        3
 70
     1
 43
0.0
 10
-8.625967234722732
 20
4.210139749560029
 10
-8.596922414095825
 20
4.181094928933122
 10
-8.72175348227438
 20
4.085308681381473
  0
HATCH
  5
14D
330
1F
100
AcDbEntity
  8
1
  6
CONTINUOUS
 62
     7
100
AcDbHatch
 10
0.0
 20
0.0
 30
0.0
210
0.0
220
0.0
230
1.0
  2
SOLID
 70
     1
 71
     1
 91
        1
 92
        1
 93
        3
 72
     1
 10
-8.625967234722732
 20
4.210139749560029
 11
-8.596922414095825
 21
4.181094928933122
 72
     1
 10
-8.596922414095825
 20
4.181094928933122
 11
-8.72175348227438
 21
4.085308681381473
 72
     1
 10
-8.72175348227438
 20
4.085308681381473
 11
-8.625967234722732
 21
4.210139749560029
 97
        1
330
14C
 75
     0
 76
     1
 98
        1
 10
0.0
 20
0.0
  0
TEXT
  5
14E
330
1F
100
AcDbEntity
  8
1
 62
     3
100
AcDbText
 10
-12.9111573974184
 20
-1.870403790583803
 30
0.0
 40
0.156
  1
2X ø.125
 41
0.783
  7
TXT
100
AcDbText
  0
TEXT
  5
14F
330
1F
100
AcDbEntity
  8
1
 62
     3
100
AcDbText
 10
-12.9111573974184
 20
-2.143403790583803
 30
0.0
 40
0.156
  1
X .35 DEEP ON ø2.125
 41
0.783
  7
TXT
100
AcDbText
  0
TEXT
  5
150
330
1F
100
AcDbEntity
  8
1
 62
     3
100
AcDbText
 10
-12.9111573974184
 20
-2.416403790583803
 30
0.0
 40
0.156
  1
FOR DOWEL PIN
 41
0.783
  7
TXT
100
AcDbText
  0
TEXT
  5
151
330
1F
100
AcDbEntity
  8
1
 62
     3
100
AcDbText
 10
-3.59943694732301
 20
0.9780483185658356
 30
0.0
 40
0.156
  1
+.000
 41
0.7650000000000001
  7
SIMPLEX
100
AcDbText
  0
TEXT
  5
153
330
1F
100
AcDbEntity
  8
1
 62
     3
100
AcDbText
 10
-3.59943694732301
 20
0.7440483185658357
 30
0.0
 40
0.156
  1
-.003
 41
0.7650000000000001
  7
SIMPLEX
100
AcDbText
  0
TEXT
  5
154
330
1F
100
AcDbEntity
  8
1
 62
    13
100
AcDbText
 10
-2.399863716581998
 20
1.24592832203588
 30
0.0
 40
0.156
  1
=1E
 41
0.7829999999999994
  7
TXT
100
AcDbText
  0
TEXT
  5
155
330
1F
100
AcDbEntity
  8
1
 62
    13
100
AcDbText
 10
-2.399863716581998
 20
0.9339283220358803
 30
0.0
 40
0.156
  1
=1E{ -A- }
 41
0.7829999999999994
  7
TXT
100
AcDbText
  0
TEXT
  5
156
330
1F
100
AcDbEntity
  8
1
 62
    13
100
AcDbText
 10
-4.509569825169898
 20
-2.572538612027828
 30
0.0
 40
0.1560000000000001
  1
=1E=B7 .010 }{ A }
 41
0.7829999999999984
  7
TXT
100
AcDbText
  0
TEXT
  5
157
330
1F
100
AcDbEntity
  8
1
 62
     3
100
AcDbText
 10
3.53788734051659
 20
-1.964190447859225
 30
0.0
 40
0.2
  1
A-A
 41
0.783
  7
COMPLEX
100
AcDbText
  0
TEXT
  5
159
330
1F
100
AcDbEntity
  8
1
 62
     2
100
AcDbText
 10
2.545873367298181
 20
-1.948818897637795
 30
0.0
 40
0.156
  1
SECTION
 41
0.783
  7
TXT
100
AcDbText
  0
TEXT
  5
15A
330
1F
100
AcDbEntity
  8
1
 62
     3
100
AcDbText
 10
8.884693515527779
 20
-0.4514281125657811
 30
0.0
 40
0.156
  1
.093 X 45° CHAM
 41
0.783
  7
TXT
100
AcDbText
  0
TEXT
  5
15B
330
1F
100
AcDbEntity
  8
1
 62
     3
100
AcDbText
 10
-8.252122091603542
 20
2.207540241673036
 30
0.0
 40
0.2
  1
A
 41
0.783
  7
COMPLEX
100
AcDbText
  0
TEXT
  5
15C
330
1F
100
AcDbEntity
  8
1
 62
     3
100
AcDbText
 10
-10.0824047151168
 20
-1.693030317259258
 30
0.0
 40
0.2
  1
A
 41
0.783
  7
COMPLEX
100
AcDbText
  0
TEXT
  5
15D
330
1F
100
AcDbEntity
  8
1
 62
     3
100
AcDbText
 10
-9.099392751238532
 20
-0.0687784657487805
 30
0.0
 40
0.156
  1
R TYP
 41
0.783
  7
TXT
100
AcDbText
  0
TEXT
  5
15E
330
1F
100
AcDbEntity
  8
1
 62
    13
100
AcDbText
 10
3.084536576870136
 20
-7.098708536216318
 30
0.0
 40
0.1559999999999999
  1
ALUMINUM 6061-T6511
 41
0.7830000000000006
  7
TXT
100
AcDbText
  0
TEXT
  5
15F
330
1F
100
AcDbEntity
  8
1
 62
    13
100
AcDbText
 10
3.084536576870136
 20
-7.371708536216317
 30
0.0
 40
0.1559999999999999
  1
TUBE, 1.127 MIN O.D. .224 WALL
 41
0.7830000000000006
  7
TXT
100
AcDbText
  0
TEXT
  5
160
330
1F
100
AcDbEntity
  8
1
 62
    13
100
AcDbText
 10
3.084536576870136
 20
-7.644708536216317
 30
0.0
 40
0.1559999999999999
  1
(1.679 I.D.)
 41
0.7830000000000006
  7
TXT
100
AcDbText
  0
TEXT
  5
161
330
1F
100
AcDbEntity
  8
1
 62
     3
100
AcDbText
 10
-7.761187711652586
 20
2.679283971685634
 30
0.0
 40
0.2
  1
B
 41
0.7829999999999995
  7
COMPLEX
100
AcDbText
  0
TEXT
  5
162
330
1F
100
AcDbEntity
  8
1
 62
     3
100
AcDbText
 10
-8.931817357892446
 20
3.849913617925492
 30
0.0
 40
0.2
  1
B
 41
0.7829999999999995
  7
COMPLEX
100
AcDbText
  0
TEXT
  5
163
330
1F
100
AcDbEntity
  8
1
 62
     3
100
AcDbText
 10
-5.800045021470021
 20
2.946008563280593
 30
0.0
 40
0.2
  1
B-B
 41
0.783
  7
COMPLEX
100
AcDbText
  0
TEXT
  5
164
330
1F
100
AcDbEntity
  8
1
 62
     2
100
AcDbText
 10
-6.442004792668669
 20
2.961380113502023
 30
0.0
 40
0.156
  1
VIEW
 41
0.783
  7
TXT
100
AcDbText
  0
TEXT
  5
165
330
1F
100
AcDbEntity
  8
1
 62
     3
100
AcDbText
 10
-5.18947152900324
 20
-8.66852548379065
 30
0.0
 40
0.156
  1
NOTE  1) ALL MACHINED SURFACES TO BE PARALLEL TO CENTER AXIS
 41
0.7650000000000001
  7
SIMPLEX
100
AcDbText
  0
TEXT
  5
166
330
1F
100
AcDbEntity
  8
1
 62
     3
100
AcDbText
 10
-5.18947152900324
 20
-8.90252548379065
 30
0.0
 40
0.156
  1
         TO WITHIN .01 INCHES OVER THE ENTIRE LENGTH.
 41
0.7650000000000001
  7
SIMPLEX
100
AcDbText
  0
TEXT
  5
167
330
1F
100
AcDbEntity
  8
1
  6
CONTINUOUS
 62
     7
100
AcDbText
 10
-4.592766911996788
 20
0.8474468485418618
 30
0.0
 40
0.156
  1
ø2.1255"
  7
TXT
 72
     1
 11
-3.995897333411759
 21
0.9254468485418618
 31
0.0
100
AcDbText
 73
     2
  0
LINE
  5
168
330
1F
100
AcDbEntity
  8
1
  6
CONTINUOUS
 62
     7
100
AcDbLine
 10
-1.025098425196852
 20
1.988188976377954
 30
0.0
 11
-4.07459733341176
 21
1.988188976377951
 31
0.0
  0
LINE
  5
169
330
1F
100
AcDbEntity
  8
1
  6
CONTINUOUS
 62
     7
100
AcDbLine
 10
-1.025098425196852
 20
-0.1372952792942257
 30
0.0
 11
-4.07459733341176
 21
-0.1372952792942279
 31
0.0
  0
LINE
  5
16A
330
1F
100
AcDbEntity
  8
1
  6
CONTINUOUS
 62
     7
100
AcDbLine
 10
-3.99589733341176
 20
1.988188976377951
 30
0.0
 11
-3.995897333411759
 21
1.042446848541861
 31
0.0
  0
LINE
  5
16B
330
1F
100
AcDbEntity
  8
1
  6
CONTINUOUS
 62
     7
100
AcDbLine
 10
-3.99589733341176
 20
-0.1372952792942279
 30
0.0
 11
-3.995897333411761
 21
0.8084468485418618
 31
0.0
  0
INSERT
  5
16C
330
1F
100
AcDbEntity
  8
1
  6
CONTINUOUS
 62
     7
100
AcDbBlockReference
  2
LONGARROW
 10
-3.99589733341176
 20
1.988188976377951
 30
0.0
 41
0.156
 42
0.156
 50
270.0
  0
INSERT
  5
16D
330
1F
100
AcDbEntity
  8
1
  6
CONTINUOUS
 62
     7
100
AcDbBlockReference
  2
LONGARROW
 10
-3.99589733341176
 20
-0.1372952792942279
 30
0.0
 41
0.156
 42
0.156
 50
90.00000000000005
  0
TEXT
  5
16E
330
1F
100
AcDbEntity
  8
1
  6
CONTINUOUS
 62
     7
100
AcDbText
 10
3.169984174100316
 20
-1.276818897637806
 30
0.0
 40
0.156
  1
9.1250"
  7
TXT
 72
     1
 11
3.66240157480315
 21
-1.198818897637806
 31
0.0
100
AcDbText
 73
     2
  0
LINE
  5
16F
330
1F
100
AcDbEntity
  8
1
  6
CONTINUOUS
 62
     7
100
AcDbLine
 10
-0.9000984251968526
 20
-0.2622952792942257
 30
0.0
 11
-0.9000984251968516
 21
-1.277518897637806
 31
0.0
  0
LINE
  5
170
330
1F
100
AcDbEntity
  8
1
  6
CONTINUOUS
 62
     7
100
AcDbLine
 10
8.224901574803151
 20
-0.0393031496063002
 30
0.0
 11
8.224901574803153
 21
-1.277518897637806
 31
0.0
  0
LINE
  5
171
330
1F
100
AcDbEntity
  8
1
  6
CONTINUOUS
 62
     7
100
AcDbLine
 10
-0.9000984251968516
 20
-1.198818897637806
 30
0.0
 11
2.923775467229641
 21
-1.198818897637806
 31
0.0
  0
LINE
  5
172
330
1F
100
AcDbEntity
  8
1
  6
CONTINUOUS
 62
     7
100
AcDbLine
 10
8.224901574803153
 20
-1.198818897637806
 30
0.0
 11
4.40102768237666
 21
-1.198818897637806
 31
0.0
  0
INSERT
  5
173
330
1F
100
AcDbEntity
  8
1
  6
CONTINUOUS
 62
     7
100
AcDbBlockReference
  2
LONGARROW
 10
-0.9000984251968516
 20
-1.198818897637806
 30
0.0
 41
0.156
 42
0.156
  0
INSERT
  5
174
330
1F
100
AcDbEntity
  8
1
  6
CONTINUOUS
 62
     7
100
AcDbBlockReference
  2
LONGARROW
 10
8.224901574803153
 20
-1.198818897637806
 30
0.0
 41
0.156
 42
0.156
 50
180.0
  0
TEXT
  5
175
330
1F
100
AcDbEntity
  8
1
  6
CONTINUOUS
 62
     7
100
AcDbText
 10
-9.517274804200409
 20
1.539016689362177
 30
0.0
 40
0.156
  1
0.2500"
  7
TXT
 72
     1
 11
-9.024857399772285
 21
1.617016689362177
 31
0.0
100
AcDbText
 73
     2
  0
LINE
  5
176
330
1F
100
AcDbEntity
  8
1
  6
CONTINUOUS
 62
     7
100
AcDbLine
 10
-9.911706099851672
 20
1.848051465765979
 30
0.0
 11
-9.528149834334501
 21
2.231607731283152
 31
0.0
  0
LINE
  5
177
330
1F
100
AcDbEntity
  8
1
  6
CONTINUOUS
 62
     7
100
AcDbLine
 10
-9.734929404555032
 20
1.67127477046934
 30
0.0
 11
-9.35137313903786
 21
2.054831035986513
 31
0.0
  0
LINE
  5
178
330
1F
100
AcDbEntity
  8
1
  6
CONTINUOUS
 62
     7
100
AcDbLine
 10
-9.583799138013882
 20
2.175958427603771
 30
0.0
 11
-9.848964180958837
 21
2.441123470548725
 31
0.0
  0
LINE
  5
179
330
1F
100
AcDbEntity
  8
1
  6
CONTINUOUS
 62
     7
100
AcDbLine
 10
-9.407022442717241
 20
1.999181732307132
 30
0.0
 11
-9.141857399772286
 21
1.734016689362177
 31
0.0
  0
INSERT
  5
17A
330
1F
100
AcDbEntity
  8
1
  6
CONTINUOUS
 62
     7
100
AcDbBlockReference
  2
LONGARROW
 10
-9.583799138013882
 20
2.175958427603771
 30
0.0
 41
0.156
 42
0.156
 50
135.0000000000001
  0
INSERT
  5
17B
330
1F
100
AcDbEntity
  8
1
  6
CONTINUOUS
 62
     7
100
AcDbBlockReference
  2
LONGARROW
 10
-9.407022442717241
 20
1.999181732307132
 30
0.0
 41
0.156
 42
0.156
 50
315.0000000000001
  0
TEXT
  5
17C
330
1F
100
AcDbEntity
  8
1
  6
CONTINUOUS
 62
     7
100
AcDbText
 10
-9.88471229333056
 20
1.848628588703369
 30
0.0
 40
0.156
  1
0.1565"
  7
TXT
 72
     1
 11
-9.392294892627726
 21
1.926628588703369
 31
0.0
100
AcDbText
 73
     2
  0
LINE
  5
17D
330
1F
100
AcDbEntity
  8
1
  6
CONTINUOUS
 62
     7
100
AcDbLine
 10
-9.928756928523982
 20
1.47744724650039
 30
0.0
 11
-9.829467277997972
 21
1.378157595974376
 31
0.0
  0
LINE
  5
17E
330
1F
100
AcDbEntity
  8
1
  6
CONTINUOUS
 62
     7
100
AcDbLine
 10
-9.818100282419319
 20
1.58810389260505
 30
0.0
 11
-9.718810631893308
 21
1.488814242079036
 31
0.0
  0
LINE
  5
17F
330
1F
100
AcDbEntity
  8
1
  6
CONTINUOUS
 62
     7
100
AcDbLine
 10
-9.885116581677353
 20
1.433806899653759
 30
0.0
 11
-10.15028162462231
 21
1.168641856708808
 31
0.0
  0
LINE
  5
180
330
1F
100
AcDbEntity
  8
1
  6
CONTINUOUS
 62
     7
100
AcDbLine
 10
-9.774459935572689
 20
1.544463545758418
 30
0.0
 11
-9.50929489262773
 21
1.809628588703369
 31
0.0
  0
INSERT
  5
181
330
1F
100
AcDbEntity
  8
1
  6
CONTINUOUS
 62
     7
100
AcDbBlockReference
  2
LONGARROW
 10
-9.885116581677353
 20
1.433806899653759
 30
0.0
 41
0.156
 42
0.156
 50
224.999999999999
  0
INSERT
  5
182
330
1F
100
AcDbEntity
  8
1
  6
CONTINUOUS
 62
     7
100
AcDbBlockReference
  2
LONGARROW
 10
-9.774459935572689
 20
1.544463545758418
 30
0.0
 41
0.156
 42
0.156
 50
44.99999999999898
  0
TEXT
  5
183
330
1F
100
AcDbEntity
  8
1
  6
CONTINUOUS
 62
     7
100
AcDbText
 10
-12.8396721308561
 20
1.823069793284788
 30
0.0
 40
0.156
  1
0.1272"
  7
TXT
 72
     1
 11
-12.34725473015327
 21
1.901069793284788
 31
0.0
100
AcDbText
 73
     2
  0
LINE
  5
184
330
1F
100
AcDbEntity
  8
1
  6
CONTINUOUS
 62
     7
100
AcDbLine
 10
-11.65966615707351
 20
1.097337454791025
 30
0.0
 11
-12.56807623993517
 21
1.313751262875674
 31
0.0
  0
LINE
  5
185
330
1F
100
AcDbEntity
  8
1
  6
CONTINUOUS
 62
     7
100
AcDbLine
 10
-11.63018090440235
 20
1.221103590876613
 30
0.0
 11
-12.53859098726401
 21
1.437517398961262
 31
0.0
  0
LINE
  5
186
330
1F
100
AcDbEntity
  8
1
  6
CONTINUOUS
 62
     7
100
AcDbLine
 10
-12.49151877832009
 20
1.29551270287068
 30
0.0
 11
-12.57842424213041
 21
0.9307217485421613
 31
0.0
  0
LINE
  5
187
330
1F
100
AcDbEntity
  8
1
  6
CONTINUOUS
 62
     7
100
AcDbLine
 10
-12.46203352564893
 20
1.419278838956268
 30
0.0
 11
-12.3751280618386
 21
1.784069793284788
 31
0.0
  0
INSERT
  5
188
330
1F
100
AcDbEntity
  8
1
  6
CONTINUOUS
 62
     7
100
AcDbBlockReference
  2
LONGARROW
 10
-12.49151877832009
 20
1.29551270287068
 30
0.0
 41
0.156
 42
0.156
 50
256.5999999999973
  0
INSERT
  5
189
330
1F
100
AcDbEntity
  8
1
  6
CONTINUOUS
 62
     7
100
AcDbBlockReference
  2
LONGARROW
 10
-12.46203352564893
 20
1.419278838956268
 30
0.0
 41
0.156
 42
0.156
 50
76.59999999999738
  0
TEXT
  5
18A
330
1F
100
AcDbEntity
  8
1
  6
CONTINUOUS
 62
     7
100
AcDbText
 10
-12.94164250693542
 20
0.899722698974865
 30
0.0
 40
0.156
  1
0.0500"
  7
TXT
 72
     1
 11
-12.46414684220476
 21
0.9777226989748651
 31
0.0
100
AcDbText
 73
     2
  0
LINE
  5
18B
330
1F
100
AcDbEntity
  8
1
  6
CONTINUOUS
 62
     7
100
AcDbLine
 10
-11.50339785762086
 20
0.9981522306008722
 30
0.0
 11
-11.57784105904035
 21
0.6856723783747717
 31
0.0
  0
LINE
  5
18C
330
1F
100
AcDbEntity
  8
1
  6
CONTINUOUS
 62
     7
100
AcDbLine
 10
-11.55203665153133
 20
1.009739625775579
 30
0.0
 11
-11.62647985295082
 21
0.6972597735494789
 31
0.0
  0
LINE
  5
18D
330
1F
100
AcDbEntity
  8
1
  6
CONTINUOUS
 62
     7
100
AcDbLine
 10
-11.55960249903536
 20
0.7622298399898514
 30
0.0
 11
-11.19481154470684
 21
0.6753243761795447
 31
0.0
  0
LINE
  5
18E
330
1F
100
AcDbEntity
  8
1
  6
CONTINUOUS
 62
     7
100
AcDbLine
 10
-11.60824129294583
 20
0.7738172351645585
 30
0.0
 11
-11.97303224727436
 21
0.8607226989748649
 31
0.0
  0
INSERT
  5
18F
330
1F
100
AcDbEntity
  8
1
  6
CONTINUOUS
 62
     7
100
AcDbBlockReference
  2
LONGARROW
 10
-11.55960249903536
 20
0.7622298399898514
 30
0.0
 41
0.156
 42
0.156
 50
346.6000000000003
  0
INSERT
  5
190
330
1F
100
AcDbEntity
  8
1
  6
CONTINUOUS
 62
     7
100
AcDbBlockReference
  2
LONGARROW
 10
-11.60824129294583
 20
0.7738172351645585
 30
0.0
 41
0.156
 42
0.156
 50
166.6000000000003
  0
TEXT
  5
191
330
1F
100
AcDbEntity
  8
1
  6
CONTINUOUS
 62
     7
100
AcDbText
 10
-11.64153719150617
 20
-1.215214842671181
 30
0.0
 40
0.156
  1
1.7790"
  7
TXT
 72
     1
 11
-11.14911979080334
 21
-1.137214842671181
 31
0.0
100
AcDbText
 73
     2
  0
LINE
  5
192
330
1F
100
AcDbEntity
  8
1
  6
CONTINUOUS
 62
     7
100
AcDbLine
 10
-9.836469372899589
 20
0.5344924617619683
 30
0.0
 11
-10.30207420714106
 21
-1.419912064444314
 31
0.0
  0
LINE
  5
193
330
1F
100
AcDbEntity
  8
1
  6
CONTINUOUS
 62
     7
100
AcDbLine
 10
-11.5670376602341
 20
0.9467719820780754
 30
0.0
 11
-12.03264249447558
 21
-1.007632544128207
 31
0.0
  0
LINE
  5
194
330
1F
100
AcDbEntity
  8
1
  6
CONTINUOUS
 62
     7
100
AcDbLine
 10
-10.28383564713607
 20
-1.343354602829235
 30
0.0
 11
-10.65800519587295
 21
-1.254214842671181
 31
0.0
  0
LINE
  5
195
330
1F
100
AcDbEntity
  8
1
  6
CONTINUOUS
 62
     7
100
AcDbLine
 10
-12.01440393447059
 20
-0.9310750825131284
 30
0.0
 11
-11.64023438573372
 21
-1.020214842671181
 31
0.0
  0
INSERT
  5
196
330
1F
100
AcDbEntity
  8
1
  6
CONTINUOUS
 62
     7
100
AcDbBlockReference
  2
LONGARROW
 10
-10.28383564713607
 20
-1.343354602829235
 30
0.0
 41
0.156
 42
0.156
 50
166.5999999999999
  0
INSERT
  5
197
330
1F
100
AcDbEntity
  8
1
  6
CONTINUOUS
 62
     7
100
AcDbBlockReference
  2
LONGARROW
 10
-12.01440393447059
 20
-0.9310750825131284
 30
0.0
 41
0.156
 42
0.156
 50
346.6
  0
TEXT
  5
198
330
1F
100
AcDbEntity
  8
1
  6
CONTINUOUS
 62
     7
100
AcDbText
 10
6.368858077702679
 20
2.946312622886259
 30
0.0
 40
0.156
  1
0.2500"
  7
TXT
 72
     1
 11
6.861275482130803
 21
3.024312622886259
 31
0.0
100
AcDbText
 73
     2
  0
LINE
  5
199
330
1F
100
AcDbEntity
  8
1
  6
CONTINUOUS
 62
     7
100
AcDbLine
 10
8.224901574803151
 20
2.020188976377952
 30
0.0
 11
8.224901574803149
 21
3.103012622886259
 31
0.0
  0
LINE
  5
19A
330
1F
100
AcDbEntity
  8
1
  6
CONTINUOUS
 62
     7
100
AcDbLine
 10
7.974901574803153
 20
1.956171620276689
 30
0.0
 11
7.974901574803151
 21
3.103012622886259
 31
0.0
  0
LINE
  5
19B
330
1F
100
AcDbEntity
  8
1
  6
CONTINUOUS
 62
     7
100
AcDbLine
 10
8.224901574803149
 20
3.024312622886259
 30
0.0
 11
8.599901574803149
 21
3.024312622886259
 31
0.0
  0
LINE
  5
19C
330
1F
100
AcDbEntity
  8
1
  6
CONTINUOUS
 62
     7
100
AcDbLine
 10
7.974901574803151
 20
3.024312622886259
 30
0.0
 11
7.599901574803151
 21
3.024312622886259
 31
0.0
  0
INSERT
  5
19D
330
1F
100
AcDbEntity
  8
1
  6
CONTINUOUS
 62
     7
100
AcDbBlockReference
  2
LONGARROW
 10
8.224901574803149
 20
3.024312622886259
 30
0.0
 41
0.156
 42
0.156
  0
INSERT
  5
19E
330
1F
100
AcDbEntity
  8
1
  6
CONTINUOUS
 62
     7
100
AcDbBlockReference
  2
LONGARROW
 10
7.974901574803151
 20
3.024312622886259
 30
0.0
 41
0.156
 42
0.156
 50
180.0
  0
TEXT
  5
19F
330
1F
100
AcDbEntity
  8
1
  6
CONTINUOUS
 62
     7
100
AcDbText
 10
-6.300653708193669
 20
4.780805364117779
 30
0.0
 40
0.156
  1
0.2500"
  7
TXT
 72
     1
 11
-5.808236303765545
 21
4.858805364117779
 31
0.0
100
AcDbText
 73
     2
  0
LINE
  5
1A0
330
1F
100
AcDbEntity
  8
1
  6
CONTINUOUS
 62
     7
100
AcDbLine
 10
-6.670291258146144
 20
4.602976842015195
 30
0.0
 11
-6.311528738327753
 21
4.244214322196806
 31
0.0
  0
LINE
  5
1A1
330
1F
100
AcDbEntity
  8
1
  6
CONTINUOUS
 62
     7
100
AcDbLine
 10
-6.493514562849508
 20
4.779753537311831
 30
0.0
 11
-6.134752043031117
 21
4.420991017493443
 31
0.0
  0
LINE
  5
1A2
330
1F
100
AcDbEntity
  8
1
  6
CONTINUOUS
 62
     7
100
AcDbLine
 10
-6.367178042007134
 20
4.299863625876187
 30
0.0
 11
-6.632343084952089
 21
4.034698582931231
 31
0.0
  0
LINE
  5
1A3
330
1F
100
AcDbEntity
  8
1
  6
CONTINUOUS
 62
     7
100
AcDbLine
 10
-6.190401346710499
 20
4.476640321172824
 30
0.0
 11
-5.925236303765544
 21
4.741805364117779
 31
0.0
  0
INSERT
  5
1A4
330
1F
100
AcDbEntity
  8
1
  6
CONTINUOUS
 62
     7
100
AcDbBlockReference
  2
LONGARROW
 10
-6.367178042007134
 20
4.299863625876187
 30
0.0
 41
0.156
 42
0.156
 50
225.0000000000001
  0
INSERT
  5
1A5
330
1F
100
AcDbEntity
  8
1
  6
CONTINUOUS
 62
     7
100
AcDbBlockReference
  2
LONGARROW
 10
-6.190401346710499
 20
4.476640321172824
 30
0.0
 41
0.156
 42
0.156
 50
45.00000000000015
  0
LINE
  5
1A6
330
1F
100
AcDbEntity
  8
1
  6
CONTINUOUS
 62
     7
100
AcDbLine
 10
-6.86969537044075
 20
4.846221574743368
 30
0.0
 11
-7.25401156510799
 21
4.715312971067024
 31
0.0
  0
LINE
  5
1A7
330
1F
100
AcDbEntity
  8
1
  6
CONTINUOUS
 62
     7
100
AcDbLine
 10
-7.25401156510799
 20
4.715312971067024
 30
0.0
 11
-7.62901156510799
 21
4.715312971067024
 31
0.0
  0
INSERT
  5
1A8
330
1F
100
AcDbEntity
  8
1
  6
CONTINUOUS
 62
     7
100
AcDbBlockReference
  2
LONGARROW
 10
-6.899039710427656
 20
4.836226090226209
 30
0.0
 41
0.156
 42
0.156
 50
198.8102465105702
  0
TEXT
  5
1A9
330
1F
100
AcDbEntity
  8
1
  6
CONTINUOUS
 62
     7
100
AcDbText
 10
-9.233098550919581
 20
4.637312971067023
 30
0.0
 40
0.156
  1
R 0.0310"
  7
TXT
 72
     1
 11
-8.591463753242184
 21
4.715312971067024
 31
0.0
100
AcDbText
 73
     2
  0
LINE
  5
1AA
330
1F
100
AcDbEntity
  8
1
  6
CONTINUOUS
 62
     7
100
AcDbLine
 10
-9.928756928523982
 20
1.521287866933958
 30
0.0
 11
-9.970746633273446
 21
1.117465053443865
 31
0.0
  0
LINE
  5
1AB
330
1F
100
AcDbEntity
  8
1
  6
CONTINUOUS
 62
     7
100
AcDbLine
 10
-9.970746633273446
 20
1.117465053443865
 30
0.0
 11
-10.34574663327344
 21
1.117465053443865
 31
0.0
  0
INSERT
  5
1AC
330
1F
100
AcDbEntity
  8
1
  6
CONTINUOUS
 62
     7
100
AcDbBlockReference
  2
LONGARROW
 10
-9.931963038985148
 20
1.490454105312791
 30
0.0
 41
0.156
 42
0.156
 50
264.063688276137
  0
TEXT
  5
1AD
330
1F
100
AcDbEntity
  8
1
  6
CONTINUOUS
 62
     7
100
AcDbText
 10
-11.94983361908503
 20
1.039465053443865
 30
0.0
 40
0.156
  1
R 0.0310"
  7
TXT
 72
     1
 11
-11.30819882140764
 21
1.117465053443865
 31
0.0
100
AcDbText
 73
     2
  0
LINE
  5
1AE
330
1F
100
AcDbEntity
  8
1
  6
CONTINUOUS
 62
     7
100
AcDbLine
 10
-9.61384373009057
 20
-0.1187434394430423
 30
0.0
 11
-9.402534186146302
 21
-0.3300529833873104
 31
0.0
  0
TEXT
  5
1AF
330
1F
100
AcDbEntity
  8
1
  6
CONTINUOUS
 62
     7
100
AcDbText
 10
-12.546001707223
 20
-1.379040226814863
 30
0.0
 40
0.156
  1
45.0000°
  7
TXT
 72
     1
 11
-11.9789756043076
 21
-1.301040226814863
 31
0.0
100
AcDbText
 73
     2
  0
ARC
  5
1B0
330
1F
100
AcDbEntity
  8
1
  6
CONTINUOUS
 62
     7
100
AcDbCircle
 10
-10.65778401992731
 20
0.9251968503937042
 30
0.0
 40
1.696491339099678
100
AcDbArc
 50
257.335085760704
 51
270.0
  0
ARC
  5
1B1
330
1F
100
AcDbEntity
  8
1
  6
CONTINUOUS
 62
     7
100
AcDbCircle
 10
-10.65778401992731
 20
0.9251968503937042
 30
0.0
 40
1.696491339099678
100
AcDbArc
 50
314.9999999999998
 51
327.6649142392958
  0
INSERT
  5
1B2
330
1F
100
AcDbEntity
  8
1
  6
CONTINUOUS
 62
     7
100
AcDbBlockReference
  2
LONGARROW
 10
-10.6577840199273
 20
-0.7712944887059746
 30
0.0
 41
0.156
 42
0.156
 50
174.7313956764528
  0
INSERT
  5
1B3
330
1F
100
AcDbEntity
  8
1
  6
CONTINUOUS
 62
     7
100
AcDbBlockReference
  2
LONGARROW
 10
-9.458183489825684
 20
-0.2744036797079289
 30
0.0
 41
0.156
 42
0.156
 50
50.26860432354705
  0
LINE
  5
1B4
330
1F
100
AcDbEntity
  8
1
  6
CONTINUOUS
 62
     7
100
AcDbLine
 10
-9.818100282419317
 20
1.764880587901688
 30
0.0
 11
-8.58718175448941
 21
2.995799115831581
 31
0.0
  0
LINE
  5
1B5
330
1F
100
AcDbEntity
  8
1
  6
CONTINUOUS
 62
     7
100
AcDbLine
 10
-10.65778401992731
 20
3.564058263124949
 30
0.0
 11
-10.65778401992731
 21
3.853470656456422
 31
0.0
  0
TEXT
  5
1B6
330
1F
100
AcDbEntity
  8
1
  6
CONTINUOUS
 62
     7
100
AcDbText
 10
-10.69766253574816
 20
2.119843704529622
 30
0.0
 40
0.156
  1
45.0000°
  7
TXT
 72
     1
 11
-10.13063643283275
 21
2.197843704529621
 31
0.0
100
AcDbText
 73
     2
  0
ARC
  5
1B7
330
1F
100
AcDbEntity
  8
1
  6
CONTINUOUS
 62
     7
100
AcDbCircle
 10
-10.65778401992731
 20
0.9251968503937053
 30
0.0
 40
2.849573806062716
100
AcDbArc
 50
44.99999999999967
 51
61.3526360837816
  0
ARC
  5
1B8
330
1F
100
AcDbEntity
  8
1
  6
CONTINUOUS
 62
     7
100
AcDbCircle
 10
-10.65778401992731
 20
0.9251968503937053
 30
0.0
 40
2.849573806062716
100
AcDbArc
 50
73.64736391621811
 51
90.00000000000005
  0
INSERT
  5
1B9
330
1F
100
AcDbEntity
  8
1
  6
CONTINUOUS
 62
     7
100
AcDbBlockReference
  2
LONGARROW
 10
-8.642831058168791
 20
2.9401498121522
 30
0.0
 41
0.156
 42
0.156
 50
138.1366590979406
  0
INSERT
  5
1BA
330
1F
100
AcDbEntity
  8
1
  6
CONTINUOUS
 62
     7
100
AcDbBlockReference
  2
LONGARROW
 10
-10.65778401992731
 20
3.774770656456422
 30
0.0
 41
0.156
 42
0.156
 50
356.863340902059
  0
TEXT
  5
1BB
330
1F
100
AcDbEntity
  8
1
  6
CONTINUOUS
 62
     7
100
AcDbText
 10
0.0283336465333194
 20
-5.995697169294999
 30
0.0
 40
0.156
  1
13.4000°
  7
TXT
 72
     1
 11
0.5804380060259789
 21
-5.917697169294998
 31
0.0
100
AcDbText
 73
     2
  0
ARC
  5
1BC
330
1F
100
AcDbEntity
  8
1
  6
CONTINUOUS
 62
     7
100
AcDbCircle
 10
-10.65778401992731
 20
0.9251968503937009
 30
0.0
 40
1.616169865306619
100
AcDbArc
 50
333.305656516291
 51
346.6
  0
ARC
  5
1BD
330
1F
100
AcDbEntity
  8
1
  6
CONTINUOUS
 62
     7
100
AcDbCircle
 10
-10.65778401992731
 20
0.9251968503937009
 30
0.0
 40
1.616169865306619
100
AcDbArc
 50
0.0000000000000117
 51
13.29434348370898
  0
INSERT
  5
1BE
330
1F
100
AcDbEntity
  8
1
  6
CONTINUOUS
 62
     7
100
AcDbBlockReference
  2
LONGARROW
 10
-9.0856129598681
 20
0.5506528724184573
 30
0.0
 41
0.156
 42
0.156
 50
251.069553110777
  0
INSERT
  5
1BF
330
1F
100
AcDbEntity
  8
1
  6
CONTINUOUS
 62
     7
100
AcDbBlockReference
  2
LONGARROW
 10
-9.04161415462069
 20
0.9251968503937012
 30
0.0
 41
0.156
 42
0.156
 50
95.53044688922302
  0
TEXT
  5
1C0
330
1F
100
AcDbEntity
  8
1
  6
CONTINUOUS
 62
     7
100
AcDbText
 10
-10.27514093930113
 20
2.572154133412621
 30
0.0
 40
0.156
  1
2.5000°
  7
TXT
 72
     1
 11
-9.78272353487301
 21
2.650154133412621
 31
0.0
100
AcDbText
 73
     2
  0
ARC
  5
1C1
330
1F
100
AcDbEntity
  8
1
  6
CONTINUOUS
 62
     7
100
AcDbCircle
 10
-10.65778401992731
 20
0.9251968503937009
 30
0.0
 40
2.151340514644872
100
AcDbArc
 50
77.5127770703224
 51
87.50000000000008
  0
ARC
  5
1C2
330
1F
100
AcDbEntity
  8
1
  6
CONTINUOUS
 62
     7
100
AcDbCircle
 10
-10.65778401992731
 20
0.9251968503937009
 30
0.0
 40
2.151340514644872
100
AcDbArc
 50
90.00000000000005
 51
99.98722292967777
  0
INSERT
  5
1C3
330
1F
100
AcDbEntity
  8
1
  6
CONTINUOUS
 62
     7
100
AcDbBlockReference
  2
LONGARROW
 10
-10.56394386466427
 20
3.074489765566659
 30
0.0
 41
0.156
 42
0.156
 50
353.3453152612541
  0
INSERT
  5
1C4
330
1F
100
AcDbEntity
  8
1
  6
CONTINUOUS
 62
     7
100
AcDbBlockReference
  2
LONGARROW
 10
-10.65778401992731
 20
3.076537365038573
 30
0.0
 41
0.156
 42
0.156
 50
184.154684738746
  0
INSERT
  5
1CC
330
1F
100
AcDbEntity
  8
0
100
AcDbBlockReference
  2
REV_A__1
 10
-14.0258587648093
 20
2.344235809205629
 30
0.0
  0
INSERT
  5
1D4
330
1F
100
AcDbEntity
  8
0
100
AcDbBlockReference
  2
REV_A__2
 10
-13.16035938644209
 20
-3.28151015018103
 30
0.0
  0
INSERT
  5
3B7
330
1F
100
AcDbEntity
  8
0
100
AcDbBlockReference
  2
WBS6_FORMAT_D
 10
-0.5166639769266496
 20
-3.464022097275044
 30
0.0
  0
ENDSEC
  0
SECTION
  2
OBJECTS
  0
DICTIONARY
  5
C
330
0
100
AcDbDictionary
  3
ACAD_GROUP
350
D
  3
ACAD_PLOTSTYLENAME
350
E
  3
ACAD_MLINESTYLE
350
17
  3
ACAD_PLOTSETTINGS
350
19
  3
ACAD_LAYOUT
350
1A
  3
ACDBHEADERROUNDTRIPXREC
350
3B8
  0
DICTIONARY
  5
3DB
330
1F
100
AcDbDictionary
280
     1
  3
ACAD_LAYOUTSELFREF
360
3DC
  0
DICTIONARY
  5
3D9
330
1B
100
AcDbDictionary
280
     1
  3
ACAD_LAYOUTSELFREF
360
3DA
  0
DICTIONARY
  5
D
102
{ACAD_REACTORS
330
C
102
}
330
C
100
AcDbDictionary
  0
ACDBDICTIONARYWDFLT
  5
E
102
{ACAD_REACTORS
330
C
102
}
330
C
100
AcDbDictionary
281
     1
  3
Normal
350
F
100
AcDbDictionaryWithDefault
340
F
  0
DICTIONARY
  5
17
102
{ACAD_REACTORS
330
C
102
}
330
C
100
AcDbDictionary
  3
STANDARD
350
18
  0
DICTIONARY
  5
19
102
{ACAD_REACTORS
330
C
102
}
330
C
100
AcDbDictionary
  0
DICTIONARY
  5
1A
102
{ACAD_REACTORS
330
C
102
}
330
C
100
AcDbDictionary
  0
DICTIONARY
  5
3B8
102
{ACAD_REACTORS
330
C
102
}
330
C
100
AcDbDictionary
  3
TSTACKALIGN
350
3B9
  3
TSTACKSIZE
350
3BA
  3
HYPERLINKBASE
350
3BB
  3
STYLESHEET
350
3BC
  3
LAYOUTDICT
350
3BD
  3
PLOTSETDICT
350
3BE
  3
PLOTSTYLNAMDICT
350
3BF
  3
LWETCUNION
350
3C0
  3
INSUNITS
350
3C1
  3
CEPSNTYPE
350
3C2
  3
FINGERPRINTGUID
350
3C3
  3
VERSIONGUID
350
3C4
  3
PSVPSCALE
350
3C5
  3
DIMSTYLEDATA
350
3C6
  3
PUCSORTHOREF
350
3C7
  3
PUCSORTHOVIEW
350
3C8
  3
PUCSBASE
350
3C9
  3
PUCSORGTOP
350
3CA
  3
PUCSORGBOTTOM
350
3CB
  3
PUCSORGLEFT
350
3CC
  3
PUCSORGRIGHT
350
3CD
  3
PUCSORGFRONT
350
3CE
  3
PUCSORGBACK
350
3CF
  3
UCSORTHOREF
350
3D0
  3
UCSORTHOVIEW
350
3D1
  3
UCSBASE
350
3D2
  3
UCSORGTOP
350
3D3
  3
UCSORGBOTTOM
350
3D4
  3
UCSORGLEFT
350
3D5
  3
UCSORGRIGHT
350
3D6
  3
UCSORGFRONT
350
3D7
  3
UCSORGBACK
350
3D8
  0
XRECORD
  5
3DC
102
{ACAD_REACTORS
330
3DB
102
}
330
3DB
100
AcDbXrecord
340
1F
  0
XRECORD
  5
3DA
102
{ACAD_REACTORS
330
3D9
102
}
330
3D9
100
AcDbXrecord
340
1B
  0
ACDBPLACEHOLDER
  5
F
102
{ACAD_REACTORS
330
E
102
}
330
E
100
AcDbPlaceHolder
280
     0
  0
MLINESTYLE
  5
18
102
{ACAD_REACTORS
330
17
102
}
330
17
100
AcDbMlineStyle
  2
STANDARD
 70
     0
  3

 62
   256
 51
90.0
 52
90.0
 71
     2
 49
0.5
 62
   256
  6
BYLAYER
 49
-0.5
 62
   256
  6
BYLAYER
  0
XRECORD
  5
3B9
102
{ACAD_REACTORS
330
3B8
102
}
330
3B8
100
AcDbXrecord
 90
        1
  0
XRECORD
  5
3BA
102
{ACAD_REACTORS
330
3B8
102
}
330
3B8
100
AcDbXrecord
 90
       70
  0
XRECORD
  5
3BB
102
{ACAD_REACTORS
330
3B8
102
}
330
3B8
100
AcDbXrecord
  1

  0
XRECORD
  5
3BC
102
{ACAD_REACTORS
330
3B8
102
}
330
3B8
100
AcDbXrecord
  1

  0
XRECORD
  5
3BD
102
{ACAD_REACTORS
330
3B8
102
}
330
3B8
100
AcDbXrecord
340
1A
  0
XRECORD
  5
3BE
102
{ACAD_REACTORS
330
3B8
102
}
330
3B8
100
AcDbXrecord
340
19
  0
XRECORD
  5
3BF
102
{ACAD_REACTORS
330
3B8
102
}
330
3B8
100
AcDbXrecord
340
E
  0
XRECORD
  5
3C0
102
{ACAD_REACTORS
330
3B8
102
}
330
3B8
100
AcDbXrecord
 90
    10781
  0
XRECORD
  5
3C1
102
{ACAD_REACTORS
330
3B8
102
}
330
3B8
100
AcDbXrecord
 90
        0
  0
XRECORD
  5
3C2
102
{ACAD_REACTORS
330
3B8
102
}
330
3B8
100
AcDbXrecord
 90
        0
  0
XRECORD
  5
3C3
102
{ACAD_REACTORS
330
3B8
102
}
330
3B8
100
AcDbXrecord
  1
{0C1A4BC7-9AC5-425D-B643-B8937D0C4B59}
  0
XRECORD
  5
3C4
102
{ACAD_REACTORS
330
3B8
102
}
330
3B8
100
AcDbXrecord
  1
{957E2E97-E9CE-494A-8DF3-AFA77C0CDFD7}
  0
XRECORD
  5
3C5
102
{ACAD_REACTORS
330
3B8
102
}
330
3B8
100
AcDbXrecord
 40
0.0
  0
XRECORD
  5
3C6
102
{ACAD_REACTORS
330
3B8
102
}
330
3B8
100
AcDbXrecord
1000
DSTYLE
1002
{
1070
   277
 70
     4
1002
}
  0
XRECORD
  5
3C7
102
{ACAD_REACTORS
330
3B8
102
}
330
3B8
100
AcDbXrecord
340
0
  0
XRECORD
  5
3C8
102
{ACAD_REACTORS
330
3B8
102
}
330
3B8
100
AcDbXrecord
 70
     0
  0
XRECORD
  5
3C9
102
{ACAD_REACTORS
330
3B8
102
}
330
3B8
100
AcDbXrecord
340
0
  0
XRECORD
  5
3CA
102
{ACAD_REACTORS
330
3B8
102
}
330
3B8
100
AcDbXrecord
 10
0.0
 20
0.0
 30
0.0
  0
XRECORD
  5
3CB
102
{ACAD_REACTORS
330
3B8
102
}
330
3B8
100
AcDbXrecord
 10
0.0
 20
0.0
 30
0.0
  0
XRECORD
  5
3CC
102
{ACAD_REACTORS
330
3B8
102
}
330
3B8
100
AcDbXrecord
 10
0.0
 20
0.0
 30
0.0
  0
XRECORD
  5
3CD
102
{ACAD_REACTORS
330
3B8
102
}
330
3B8
100
AcDbXrecord
 10
0.0
 20
0.0
 30
0.0
  0
XRECORD
  5
3CE
102
{ACAD_REACTORS
330
3B8
102
}
330
3B8
100
AcDbXrecord
 10
0.0
 20
0.0
 30
0.0
  0
XRECORD
  5
3CF
102
{ACAD_REACTORS
330
3B8
102
}
330
3B8
100
AcDbXrecord
 10
0.0
 20
0.0
 30
0.0
  0
XRECORD
  5
3D0
102
{ACAD_REACTORS
330
3B8
102
}
330
3B8
100
AcDbXrecord
340
0
  0
XRECORD
  5
3D1
102
{ACAD_REACTORS
330
3B8
102
}
330
3B8
100
AcDbXrecord
 70
     0
  0
XRECORD
  5
3D2
102
{ACAD_REACTORS
330
3B8
102
}
330
3B8
100
AcDbXrecord
340
0
  0
XRECORD
  5
3D3
102
{ACAD_REACTORS
330
3B8
102
}
330
3B8
100
AcDbXrecord
 10
0.0
 20
0.0
 30
0.0
  0
XRECORD
  5
3D4
102
{ACAD_REACTORS
330
3B8
102
}
330
3B8
100
AcDbXrecord
 10
0.0
 20
0.0
 30
0.0
  0
XRECORD
  5
3D5
102
{ACAD_REACTORS
330
3B8
102
}
330
3B8
100
AcDbXrecord
 10
0.0
 20
0.0
 30
0.0
  0
XRECORD
  5
3D6
102
{ACAD_REACTORS
330
3B8
102
}
330
3B8
100
AcDbXrecord
 10
0.0
 20
0.0
 30
0.0
  0
XRECORD
  5
3D7
102
{ACAD_REACTORS
330
3B8
102
}
330
3B8
100
AcDbXrecord
 10
0.0
 20
0.0
 30
0.0
  0
XRECORD
  5
3D8
102
{ACAD_REACTORS
330
3B8
102
}
330
3B8
100
AcDbXrecord
 10
0.0
 20
0.0
 30
0.0
  0
ENDSEC
  0
EOF
